Oops, an error
Loading. Please wait.

A Field Of Birds Live Tab

version 1
version 1

Whole song

Interactive

7,079 views 9 this week
no commentswrite comment
1 2 3 4 5
please rate
add to favorites
launch autoscroll
font size
0
reset
how to read this tab
guitar tuner
Autoscroll
slow
fast
+/-
esc
set tempo
stop
Help us to improve Ultimate-Guitar.com Take our survey!
×
Difficulty
Capo
advanced
7th fret
-------------------------------------------------------------------------------
                             A FIELD OF BIRDS - The Tallest Man On Earth
-------------------------------------------------------------------------------
Tabbed by: Paddy
Email:paddywithams@hotmail.co.uk

Tuning:CGCFCE
Capo 7

e|---------------------------------------------------------------------------|
C|-----0--0---0--------5-4-2h4---0----------------0-----0-----0-----0--------|
F|--2-------2------------------2----------------2-----2-----4-----4----------|
C|--0---0--0---0--x3---0--0---0---0------------0---0-0---0-0---0-0---0-------|
G|---------------------------------------------------------------------------|
C|-0--0---0--0--------0-0--0----0-------------4--4--4--4--5--5--5--5---------|

e|------------------------------------------------------------------5+-------|
C|-----0--0---0--------5-4-2h4---0----------------0-----0-----0-2---5+-------|
F|---2------2------------------2----------------2-----2-----4-------5+-------|
C|--0---0--0---0-------0--0---0---0------------0---0-0---0-0---0-0--5+-------|
G|------------------------------------------------------------------5+-------|
C|-0--0---0--0--------0-0--0----0-------------4--4--4--4--5--5--5------------|

e|--5-3---------------------------0------------------------------------------|
C|--0-0-3p0---0--4p0-----5-4----0-----0-2---0-2/4-0-0------------------------|
F|--4-2-----2--------2--------0-----0-----0--------4-------------------------|
C|--0--0---0---0-0----0---0-0-2--2-2---2-2---2-(4)-------x2-last time repeat-|
G|--------------------------------------0--0--0---------------last phrase----|
C|-0-0--0----0--0---0----5-4-2-2--2--2-------------5-------------------------|

For the rest of the song just use the shapes in the first two lines of tab and
the last two shapes in the last line. If you're good enough to play this then
you should be able to work out where they go/what they are. There are a couple
of different licks he does but i haven't bothered working them out yet. Here are
the lyrics off some website:

A little bird
Came right up to me
He found a thread, oh
Hanging from my sleeve

Then he flew up high
Until I fell apart
Stitches, they all flew, oh
From what hid my heart

So then a little girl
Came and found my bones
She built a man, oh
She should have made him watch

As the meadowlark
Found that needle's eye
As he made that patch, oh
For my broken sky

And so the winter night
Came down to our hands
Trying to steal, oh
What could soothe a man

Yes and still I knew
That old dark was mine
And it's fading out, oh
Every star I find

And so... By the day
Little girl and I
Shook all trees, oh
To see what would fly

And it's times like these
There's no need for words
I just need to find, ohhhhh...
I need a field of birds

Enjoy!

************************************

| /   slide up
| \   slide down
| h   hammer-on
| p   pull-off
| ~   vibrato
| +   harmonic
| x   Mute note
| b   Bend
| pb  Pre-bend
| br  Bend release
| pbr Pre-bend release
| brb Bend release bend

************************************
Suggest correction
Give kudos to tab author, rate the tab!
1 2 3 4 5
comments
print report bad tab
guest
You may want to rate the tab now too:
select rating
Wanna post a correction for this tab? Suggest correction