Oops, an error
Loading. Please wait.

A Field Of Birds Tab

version 1
version 1

Live

  • ##Tuning is CGCFCe, capo on 7th.## This tab is bas... Show more

Whole song

Interactive

28 views 15 this week
no commentswrite comment
1 2 3 4 5
2 more votes to show rating
add to favorites
launch autoscroll
font size
0
reset
how to read this tab
guitar tuner
Autoscroll
slow
fast
+/-
esc
set tempo
stop
Help us to improve Ultimate-Guitar.com Take our survey!
×
Author
Difficulty
Tuning
Capo
advanced
C G C G C E
7th fret
About this tab version
##Tuning is CGCFCe, capo on 7th.## This tab is based on a live version of the song at KEXP (https://www.youtube.com/watch?v=BtB0kMB0fig). He has a studio version out that is pretty much the exact same except he doesn't play the [Intro 1] part and has capo 9. Was this info helpful? Yes No
[Intro 1]

e|-----------------|
C|------0--0----0--|
F|---2--------2----|
C|---0---0---0---0-|
G|-----------------|
C|-0---0---0---0---| x3

e|--------------------|-----------------|----------------|
C|---5--4--2h4p2---0--|-----0--0----0---|-----0--0----0--|
F|---4-----------2----|---2-------2---2-|--4--------4----|
C|---0---0------0---0-|--0---0---0---0--|--0---0---0---0-|
G|--------------------|-----------------|----------------|
C|-0---0---0------0---|4---4---4---4----|5---5---5---5---|

e|-----------------|
C|------0--0----0--|
F|---2--------2----|
C|---0---0---0---0-|
G|-----------------|
C|-0---0---0---0---|

e|--------------------|-----------------|----------0--|
C|---5--4--2h4p2---0--|-----0--0----0---|-----0----5+-|    (These harmonics are just double octaves,
F|---4-----------2----|---2-------2---2-|--4-------5+-|     meaning they can just be played open)
C|---0---0------0---0-|--0---0---0---0--|--0---0---5+-|
G|--------------------|-----------------|--------0----|
C|-0---0---0------0---|4---4---4---4----|5---5--------|


[Intro 2]

e|--------------------|-----------------|--------0-------|-----------------|
C|---------3p2p0---0--|--4p0-0--5---4---|-----0-------0--|-----2--2/4-0--0-|
F|---4--2--------2----|---------0--0----|--0--------0----|--0----------4---|
C|---5---4------0---0-|--0----0---0---0-|--2---2---2---2-|--2---2-(/4)-----|
G|--------------------|-----------------|----------------|0---0---0--------|
C|-0---0---0------0---|0----0---5---4---|2---2---2---2---|-------------4---| x2

e|-----------------|
C|-----2--2/4-0--0-|
F|--0----------4---|
C|--2---2-(/4)-----|
G|0---0---0--------|
C|-------------4---|


[Verse 1]

e|---------0-------|---------0--------|---------0-------|---------0-------|
C|------0-------0--|------0--------0--|------0-------0--|------0-------0--|
F|---2--------2----|---2---------2----|---4--------4----|---0--------0----|
C|--h4---4---4---4-|---4---4---4----4-|---0---0---0---0-|---2---2---2---2-|
G|-----------------|------------------|-----------------|-----------------|
C|-0---0---0---0---|-0---0---0---0----|-5---5---5---5---|-2---2---2---2---| x2

e|------------0----|-----------------|---------0-------|-------------------|
C|---2--2--2----0--|---2--2--0----0--|------0-------0--|---5--4--3p2p0---0-|
F|---0-------------|---0--------2----|---2--------2----|---4----------2----|
C|---2---2---2---2-|---2---2---0---0-|---4---4---4---4-|---0---0-----0---0-|
G|-0---0---0---0---|-0---0-----------|-----------------|-------------------|
C|-----------------|---------4---2---|-0---0---0---0---|-0---0---0-----0---|

e|---------0-------|-----------------|---------0-------|-------------------|
C|------0-------0--|------2--0---0---|------0-------0--|------0--0---------|
F|---0--------0----|---0-----2---0---|---2--------2----|----2--------------|
C|---2---2---2---2-|---2---2---------|---4---4---4---4-|---4---4-----------|
G|-----------------|-0---0-----------|-----------------|-------------------|
C|-2---2---2---2---|---------4---2---|-0---0---0---0---|-0---0---0---------|


[Verse 2]

e|---------0-------|--------------------|---------0-------|---------0-------|
C|------0-------0--|---5--4--2h4p2---0--|------0-------0--|------0-------0--|
F|---2--------2----|---4-----------2----|---4--------4----|---0--------0----|
C|---4---4---4---4-|---0---0------0---0-|---0---0---0---0-|---2---2---2---2-|
G|-----------------|--------------------|-----------------|-----------------|
C|-0---0---0---0---|-0---0---0------0---|-5---5---5---5---|-2---2---2---2---|

e|---------0-------|---------0-------|---------0-------|---------0-------|
C|------0-------0--|------0-------0--|------0-------0--|------0-------0--|
F|---2--------2----|---2--------2----|---4--------4----|---0--------0----|
C|---4---4---4---4-|---4---4---4---4-|---0---0---0---0-|---2---2---2---2-|
G|-----------------|-----------------|-----------------|-----------------|
C|-0---0---0---0---|-0---0---0---0---|-5---5---5---5---|-2---2---2---2---|

e|------------0----|-----------------|---------0-------|------------------|
C|---2--2--2----2--|------2--0----0--|------0-------0--|---5--4--2h4---0--|
F|---0-------------|---0--------2----|---2--------2----|---4---------2----|
C|---2---2---2---2-|---2---2---0---0-|---4---4---4---4-|---0---0----0---0-|
G|-0---0---0---0---|-0---0-----------|-----------------|------------------|
C|-----------------|---------4---2---|-0---0---0---0---|-0---0---0----0---|

e|---------0-------|-----------------|---------0-------|-------------------|
C|------0-------0--|------2--0---0---|------0-------0--|------4-------x----|
F|---0--------0----|---0-----2---0---|---2--------2----|----2-------x------|   (These dead notes are optional
C|---2---2---2---2-|---2---2---------|---4---4---4---4-|---4---4---x---x---|    but I personally love them)
G|-----------------|-0---0-----------|-----------------|-------------------|
C|-2---2---2---2---|---------4---0---|-0---0---0---0---|-0---0---x---x-----|


[Interlude]

e|--------------------|-----------------|--------0-------|-----------------|
C|---------3p2p0---0--|--4p0-0--5---4---|-----0-------0--|--2--2--2/4-0--0-|
F|---4--2--------2----|---------0--0--0-|--0--------0----|--0----------4---|
C|---5---4------0---0-|--0----0---0--0--|--2---2---2---2-|--2---2-(/4)-----|
G|--------------------|-----------------|----------------|0---0---0--------|
C|-0---0---0------0---|0----0---5---4---|2---2---2---2---|-------------4---| x2

e|------0-----0----|-----------------|
C|---3-----3----3--|---5--4--0----0--|
F|---4-------------|---4--------2----|
C|---0---0---0---0-|---0---0---0---0-|
G|-2---2---2---2---|-----------------|
C|-----------------|-4---4---4---4---| x2

e|------------0----|----------------|
C|---2--2--2----0--|--2--2--2----2--|
F|---0-------------|--0------0------|
C|---2---2---2---2-|--2---2---2---0-|
G|-0---0---0---0---|0---0---0---0---|
C|-----------------|----------------|


[Verse 3]

e|---------0-------|---------0--------|---------0-------|---------0-------|
C|------0-------0--|------0--------0--|------0-------0--|------0-------0--|
F|---2--------2----|---2---------2----|---4--------4----|---0--------0----|
C|--h4---4---4---4-|---4---4---4----4-|---0---0---0---0-|---2---2---2---2-|
G|-----------------|------------------|-----------------|-----------------|
C|-0---0---0---0---|-0---0---0---0----|-5---5---5---5---|-2---2---2---2---| x2

e|---------0-------|-----------------|---------0-------|------------------|
C|---2--2-------2--|------2--0----0--|------0-------0--|---5--4--2h4---0--|
F|---0--------0----|---0--------2----|---2--------2----|---4---------2----|
C|---2---2---2---2-|---2---2---0---0-|---4---4---4---4-|---0---0----0---0-|
G|-0---0---0---0---|-0---0-----------|-----------------|------------------|
C|-----------------|---------4---2---|-0---0---0---0---|-0---0---0----0---|

e|---------0-------|-----------------|-0-|
C|------0-------0--|-2-------0-------|-0-|
F|---0--------0----|-0-------4-------|-2-|
C|---2---2---2---2-|-----------------|-4-|
G|-----------------|-0---------------|-0-|
C|-2---2---2---2---|---------5-------|-0-|








***********************************
| /   Slide up
| \   Slide down
| h   Hummer-on
| p   Pull-off
| ~   Vibrato
| +   Harmonic
| x   Dead note
***********************************

Suggest correction
Give kudos to tab author, rate the tab!
1 2 3 4 5
comments
print report bad tab
guest
You may want to rate the tab now too:
select rating
Wanna post a correction for this tab? Suggest correction