Oops, an error
Loading. Please wait.

Beginners tab

version 1
version 1

Whole song

Interactive

5,125 views 21 this week
5 commentsread comments
1 2 3 4 5
x 5
add to favorites
×
Save as Personal and add changes to this tab that will be seen only by you. Learn more ›
×
You can save this tab as Personal to edit and correct it or add notes. All changes will be seen only by you. Learn more »
launch autoscroll
font size
0
reset
how to read this tab
guitar tuner
edit
Autoscroll
slow
fast
+/-
esc
set tempo
stop
-------------------------------------------------------------------------------
                            Beginners - The Tallest Man on Earth
-------------------------------------------------------------------------------
Tabbed by: MichaelCG8
Thanks to Urulu for edit suggestion.

Tuning: DABEAE Capo 8
Actual tuning is one step higher (EBC#F#BF#) with capo 6, but 
that's a string snapper if I've ever used one.

The pull off in bar 4 of the intro and verses is more a result of lifting
your hand off the strings, rather than a deliberate note.



Play order:
LEAD IN, INTRO
VERSE 1, VERSE 2, CHORUS
VERSE 3, VERSE 4, CHORUS
BRIDGE
VERSE 5, CHORUS
BRIDGE
OUTRO



LEAD IN

|----------------|
|--------------0-|
|-------------0--|
|------------2---|
|----------------|
|----------------|




INTRO, VERSES 1, 2, 3, 5

|----------------|--0-------------|----------------|----------------|
|----0-----------|----------------|----0-----------|--4\2-----0-----|
|--------------0-|------0-------0-|--------------0-|------4------p0-|
|----2-------2---|----2-------2---|----2-------2---|----0-------0---|
|0---------------|0---------------|0---------------|0---------------|
|--------2h4-----|--------2h4-----|--------2h4-----|--------2-------|


|----------0-----|------0---------|----------------|--0-------------|
|----0-----------|0---------------|----0-----------|----------------|
|--------------2-|----------0-----|--------------0-|------0-------0-|
|----3-------3---|----3-------1/2-|----2-------2---|----2-------0---|
|----------------|----------------|0---------------|0---------------|
|0-------0-------|0-------0-------|--------2h4-----|--------2p0-----|


|-----------0-----|------0---------|----------0-----|------0---------|
|-----0-----------|0-----------0---|----0-----------|0---------------|
|h4-------------0-|----------0-0---|--------------0-|----------0-0---|
|-----0-------0---|----0-------0---|----2-------2---|------------0---|
|-----------------|----------------|----------------|----0-----------|
|-2-------2-------|2-------2-------|4-------4-------|0-------0-------|


|----------------|0---------------|
|----------0-----|------0---------|
|----0---------0-|----------0-----|
|----0-------0---|----0-------0---|
|----------------|----------------|
|2-------2-------|2-------2-------|




CHORUS

|----------0-----|----0-0-0-0-----|----0-----0-----|----0-0-0-0-----|
|2h4---2h4-------|0---0-0-0---0---|2h4---2h4-------|0---0-0-0---0---|
|------------4---|2---2-2-2-------|------------4---|2---2-2-2-------|
|------------0---|3---3-3-3-------|------------0---|3---3-3-3-------|
|0-----0---------|0---0-0-0-------|0-----0---------|0---0-0-0-------|
|----------------|----0-0-0-------|----------------|----0-0-0-------|


|----0-----0-----|----0-0-0-------|0-----0-----0---|----------------|
|2h4---2h4-------|0---0-0-0---0---|0-----0-----0---|----0-----------|
|------------4---|2---2-2-2---0---|4-----4-----4---|--------------0-|
|------------0---|3---3-3-3-------|0-----0-----0---|----2-----------|
|0-----0---------|0---0-0-0-------|2-----2-----2---|0-----------4---|
|----------------|----0-0-0-------|2-----2-----2---|--------2h4-----|


|--0-------------|----------------|--0-------------|
|----------------|----0-----------|----------------|
|------0-------0-|--------------0-|------0-------0-|
|----2-----------|----2-----------|----2-----------|
|0-----------4---|0-----------4---|0-----------4---|
|--------2h4-----|--------2h4-----|--------2h4-----|





VERSE 4

|----------------|--0-------------|----------------|----------------|
|----0-----------|----------------|----0-----------|----------------|
|--------------0-|------0-------0-|--------------0-|----------------|
|----2-------2---|----2-------2---|----2-------2---|----------------|
|0---------------|0---------------|0---------------|0---------------|
|--------2h4-----|--------2h4-----|--------2h4-----|----------------|


|----------0-----|------0---------|----------------|--0-------------|
|----0-----------|0---------------|----0-----------|----------------|
|--------------2-|----------0-----|--------------0-|------0-------0-|
|----3-------3---|----3-------1/2-|----2-------2---|----2-------0---|
|----------------|----------------|0---------------|0---------------|
|0-------0-------|0-------0-------|--------2h4-----|--------2p0-----|


|-----------0-----|------0---------|----------0-----|------0---------|
|-----0-----------|0-----------0---|----0-----------|0---------------|
|h4-------------0-|----------0-0---|--------------0-|----------0-0---|
|-----0-------0---|----0-------0---|----2-------2---|------------0---|
|-----------------|----------------|----------------|----0-----------|
|-2-------2-------|2-------2-------|4-------4-------|0-------0-------|


|----------------|0---------------|
|----------0-----|------0---------|
|----0---------0-|----------0-----|
|----0-------0---|----0-------0---|
|----------------|----------------|
|2-------2-------|2-------2-------|




BRIDGE

|----------0-----|------0---------|----------------|------0---------|
|----0-----------|0---------------|----0-----0-----|------------0---|
|--------------0-|----4-----0-0---|--------------0-|----------2-----|
|----2-------2---|----0-------2---|----2-------2---|----3-------3---|
|----------------|----------------|0-------0-------|----------------|
|4-------4-------|2-------2-------|----------------|0-------0-------|


|0---------------|----------------|0---------------|----------------|
|------0-----0---|----0-----0-----|------0-----0---|----0-----------|
|----------0-0---|--------------0-|----------0-0---|--------------0-|
|----3-----------|----0-------0---|----0-------0---|----2-------2---|
|----------------|----------------|----------------|0---------------|
|0-------0-------|2-------2-------|2-------2-------|--------2h4-----|


|--0-------------|----------0-----|------0---------|----------------|
|----------------|----0-----------|0-----------0---|------0-----0---|
|------0-------0-|----4---------0-|----------0-0---|----4-----4-----|
|----2-------0---|----2-------2---|----0-------0---|----2-------2---|
|0---------------|----------------|----------------|0-------0-------|
|--------2p0-----|4-------4-------|2-------2-------|----------------|


|----------0-----|------0---------|----------------|0---------------|
|----0-----------|0-----------0---|----0-----0-----|------0-----0---|
|--------------2-|----------0-0---|--------------0-|--------0-0-0---|
|----3-------3---|----3-----------|----0-------0---|----0-------0---|
|----------------|----------------|----------------|----------------|
|0-------0-------|0-------0-------|2-------2-------|2-------2-------|


|----------------|0---------------|
|0---0h4---0-----|4-----0---------|
|----0---------0-|----------0-0---|
|----0-------0---|----0-------0---|
|----------------|----------------|
|2-------2-------|2-------2-------|




OUTRO

|----------------|------0---------|----------------|----------------|
|----0-----0-----|0---------------|----0-----------|------0---------|
|----------------|----------0-0---|----------------|----------2-2/--|
|----2-------0h2-|----0h2-----0---|----2-----2p0h2-|----3-------3/--|
|----------------|0-------0-------|0-------0---0---|----------------|
|4-------4-------|----------------|----------------|0-------0-------|


|------7---------|----------0-----|------7---------|
|------------0---|----0-----------|----------------|
|4---------4-4\--|2---------2-2/--|4---------0-0---|
|5---5-------5\--|3---3-------3/--|5---5-------0---|    X4
|----------------|----------------|----------------|
|2-------2-------|0-------0-------|2-------2-------|


|----------------|------0---------|----------------|----------------|
|----0-----0-----|0---------------|----0-----------|2------\0-------|
|----------------|----------0-0---|----------------|----------------|
|----2-------0h2-|----0h2-----0---|----2-----2p0h2-|----------------|
|----------------|0-------0-------|0-------0---0---|----------------|
|4-------4-------|----------------|----------------|0---------------|

            
            
Suggest correction
Creating personal tab
Creating personal tab
You can edit any tab online and save it as your Personal.

You can edit, replace or remove any tab part or add personal notes – all changes will be seen only by you.

Personal tabs can be accessed anytime from any device, even offline.
Learn more »
comments
print report bad tab
5 comments total. Showing first comments.
0 reply
heinrich0kuhn 10 Mar 22, 2016 10:52 PM, edited on March 23 2016, 02:52 am

Awesome man, such a nice song. He plays a very nice version of darkness of a dream in a KEXP session. I'd love to tab it out sometime, sadly I'm not very good at it

0 reply
Urulu 121 Apr 11, 2017 10:10 PM, edited on April 12 2017, 02:11 am

On this part of the verse (second line)|----------0-----|------0---------||----0-----------|0---------------||--------------2-|----------0-----||----3-------3---|----3-------0h2-||----------------|----------------||0-------0-------|0-------0-------|I like playing this hammer on better|----------0-----|------0---------||----0-----------|0---------------||--------------2-|----------0-----||----3-------3---|----3-----------||----------------|------------3/4-||0-------0-------|0-------0-------|Awesome tab!

0 reply
Urulu 121 Apr 11, 2017 10:12 PM

On this part of the verse (second line)

|----------0-----|------0---------|
|----0-----------|0---------------|
|--------------2-|----------0-----|
|----3-------3---|----3-------0h2-|
|----------------|----------------|
|0-------0-------|0-------0-------|

I like playing this slide up better

|----------0-----|------0---------|
|----0-----------|0---------------|
|--------------2-|----------0-----|
|----3-------3---|----3-----------|
|----------------|------------3/4-|
|0-------0-------|0-------0-------|

Don't know what happened on that first one...

guest
You may want to rate the tab now too:
select rating
Wanna post a correction for this tab? Suggest correction