Oops, an error
Loading. Please wait.

Burden Of Tomorrow Tab

version 1
version 1

Whole song

Video

8,577 views 9 this week
no commentswrite comment
1 2 3 4 5
please rate
add to favorites
launch autoscroll
font size
0
reset
how to read this tab
guitar tuner
Tab Pro tools
  • play this tab
  • loop segment
  • change instrument
  • show fretboard
  • metronome
×
Best way to learn
"Burden Of Tomorrow"
Autoscroll
slow
fast
+/-
esc
set tempo
stop
Tuning
Capo
E B E G# B E
2nd fret
Haven't seen this tabbed in an open tuning yet - love this guy but his tunings are tough 
to figur out. This is in Open E with a capo on the 2nd fret, tab will be relative to 
the second fret. I definitely skimped on including the strums but you'll get the idea.

Tuning: EBEG#BE
Capo: 2nd fret

Intro


e|-----------------------------------------------------------------|
B|-----------------------------------------------------------------|
G|-3-3--3h5-----1-1-1p0----/3-3-0--0------/3-3-0-0-----------------|
D|-0-0--0-------0-0-0-------0-0-0--2-------0-0-0-2-----------------|
A|-4-4--4-------2-2-2-------0-0-0--0-------0-0-0-0-----------------|
E|-0-0--0-------0-0-0-------0-0-0--0-------0-0-0-0-----------------| 

                                                                              x2
e|----------------------------|--------------------------|-----------|
B|----------------------------|--------------------------|-----------|
G|-3-3--3h5-----1-1-1----1---|--0-0-0---0h1-1-1--0--0--|-------------|
D|-0-0--0-------0-0-0----0---|--0-0-0---0---0-0--0--0--|-------------|
A|-4-4--4-------2-2-2----2---|--0-0-0---0h2-2-2--2--2--|-------------|
E|-0-0--0-------0-0-0----0---|--0-0-0---0---0-0--0--0--|-------------|


Verse
e|------------------------------------------------------------------|
B|------------------------------------------------------------------|
G|--0-0---1-1--0-0--1-1----1-1--3-3--5-5--1-1-----------------------|
D|--0-0---0-0--0-0--0-0----2-2--4-4--5-5--2-2-----------------------|
A|--0-0---2-2--0-0--2-2----2-2--4-4--5-5--2-2-----------------------|
E|--0-0---0-0--0-0--0-0----0-0--0-0--0-0--0-0-----------------------|



Chorus
e|---------------------------------------------------------------|
B|---------------------------------------------------------------|
G|--5-5--3-3--0-0--1-1-------------------------------------------|
D|--5-5--4-4--0-0--0-0-------------------------------------------|
A|--5-5--4-4--0-0--2-2-------------------------------------------|
E|--0-0--0-0--0-0--0-0-------------------------------------------|

End of Chorus (but i won't fight this stranger...)
               x2
e|---------------------------------------------------------------|
B|---------------------------------------------------------------|
G|--5-5--3-3--1-1------------------------------------------------|
D|--5-5--4-4--2-2------------------------------------------------|
A|--5-5--4-4--2-2------------------------------------------------|
E|--0-0--0-0--0-0------------------------------------------------|


Breakdown:
                       x2                                           x2
e|----------------7--4--------|-------------------------------------|
B|----------------------------|-------------------------------------|
G|--5-/6-/7----0-0---0-----5-|----5--3--1------7--------------------|
D|--5-/6-/7----0-0---0-----5-|----5--4--2------7--------------------|
A|--5-/6-/7----0-0---0-----5-|----5--4--2------7--------------------|
E|--0--0--0----0-0---0-----0-|----0--0--0------0--------------------|

| /  slide up
| \  slide down
| h  hammer-on
| p  pull-off
| ~  vibrato
| +  harmonic
| x  Mute note
comments
We did not receive enough feedback on this tab! Please rate:
print report bad tab
1 2 3 4 5
I want to post or [tab]
guest
You may want to rate the tab now too:
select rating
Please do not post tabs as comments. Select "correction" instead!