Oops, an error
Loading. Please wait.

Burden Of Tomorrow Tab

version 2
version 2

Whole song

Video

2,341 views 6 this week
1 commentread comment
1 2 3 4 5
please rate
add to favorites
launch autoscroll
font size
0
reset
how to read this tab
guitar tuner
Tab Pro tools
  • play this tab
  • loop segment
  • change instrument
  • show fretboard
  • metronome
×
Best way to learn
"Burden Of Tomorrow"
Autoscroll
slow
fast
+/-
esc
set tempo
stop
Contributor
Tuning
Capo
C G C G C E
6th fret
Burden of Tomorrow by The Tallest Man On Earth

Capo 6

Tuning: CGCGCE

Intro:
E|-0-----0--0-----0----0---0--0------------|
C|-0-----0--0-----0----0---0--0------------|
G|-2-----4--0-----2----0---0--0------------|   X2
C|-0-----0--0-----4----5---4--5------------|
G|-4-----4--2-----0----2---2--2------------|
C|-x-----x--x-----x----x---x--x------------|

Verse:
E|-----0----0----0----0----0----0----0----0----|
C|-----0----0----0----0----0----0----0----0----|
G|-----2----0----2----0----0----0----0----0----|   X2
C|-----4----5----4----5----2----4----5----2----|
G|-----0----2----0----2----0----0----2----0----|
C|-----x----x----x----x----2----4----x----2----|

Verse 1:
Oh I was sent to find the lonesome place
Where I was lost but left to trace
By carving riddles on the lonesome vine

Oh but rumour has it that I wasn't born
I just walked in one frosty morn
Into the vision of some vacant mind

Chorus:
E|-----0----0----0----0--0---0---0----0----0----|
C|-----0----0----0----0--0---0---0----0----0----|
G|-----0----0----2----0--0---0---0----2----0----|  
C|-----5----2----4----5--4---5---2----4----5----|
G|-----2----0----0----2--2---2---0----0----2----|
C|-----x----2----x----x--x---x---2----x----x----|

E|0---0---0----0----0---0---0----0----|
C|0---0---0----0----0---0---0----0----|
G|0---0---0----0----0---0---0----2----|
C|5---4---5----2----5---4---2----4----|
G|0---0---2----0----0---0---0----0----|
C|5---4---x----2----5---4---2----x----|


Chorus 1:
Oh once I held a pony by its flagging mane
And once I called the shadow in the turning game
But   I will     fight this stranger that you should fear
So   I won't    be your   burden of tomorrow dear


Verse 2:
Aww Xavier's on the border of the sun
Swings on the chambers of your guns
And tries to shoot the chord and light the path

Aww but hell I'm just a blind man on the plains
I drink my water when it rains
And live by chance among the lightning strikes

Chorus 2:
Oh once I held a glacier to an open flame
And once I felt like wildcat in the fallen game
But I will fight this stranger that you should fear
So I won't be your burden of tomorrow dear

(Intro Again)

Chorus 3:
Oh the singer's on the edge to feed the canyon's mouth
They will go on forever til they sing you out of time
But I will fight this stranger that you should fear
So I won't be your burden of tomorrow dear


Enjoy.
comments
We did not receive enough feedback on this tab! Please rate:
print report bad tab
1 2 3 4 5
1 comment total.
-1 reply
lunus wrote on June 23 2015, 04:17 pm

didn't like this contribution

I want to post or [tab]
guest
You may want to rate the tab now too:
select rating
Please do not post tabs as comments. Select "correction" instead!