Oops, an error
Loading. Please wait.

Burden Of Tomorrow tab

version 3
version 3

Whole song

Video

10,092 views 48 this week
no commentswrite comment
1 2 3 4 5
x 11
add to favorites
×
Save as Personal and add changes to this tab that will be seen only by you. Learn more ›
×
You can save this tab as Personal to edit and correct it or add notes. All changes will be seen only by you. Learn more »
launch autoscroll
font size
0
reset
how to read this tab
guitar tuner
edit
Autoscroll
slow
fast
+/-
esc
set tempo
stop
Author
-------------------------------------------------------------------------------
                             SONG NAME - Band Name
-------------------------------------------------------------------------------
Tabbed by: Pontus
E-mail: ponza97@telia.com

Since there's no good tab on this wonderful song here on UG I thought I'd share a tab 
that's probably 99% correct. If you have any thoughts on changes to be made on this tab be 
sure to send an email. This is my first tab so be kind! :)

Tuning: CGCFCe

Second string is tuned up a half step,the rest (except the first string) is tuned down.

Capo on 6th fret.

I'll give you the chords for the different parts of the song. Just listen to the song to 
get the chord changes right and to figure out the strumming pattern. It's pretty simple 
and not hard to learn! :)

Intro:
   Part 1                                Part 2
e|--0-0-0-0---0-0-0-0-0---0-0-0-x--------0-0-0---0-0-0---0-0-0--0-0-0-0-------|
C|--0-0-0-0---0-0-0-0-0---0-0-0-x--------0-0-0---0-0-0---0-0-0--0-0-0-0-------|
F|--0-2-4-0---2-0-2-0-2---2-4-0-x--------2-0-0---2-0-0---2-0-0--0-0-0-0-------|
C|--0-0-0-5---0-4-0-4-0---0-0-5-x--------4-5-4---4-5-4---4-5-4--2-0-2-5-(5s4)-|
G|--0-0-0-2---0-0-0-0-0---0-0-2-x--------0-2-2---0-2-2---0-2-2--0-0-0-2-------|
C|--0-0-0-0---0-0-0-0-0---0-0-0-x--------0-0-0---0-0-0---0-0-0--0-0-0-0-------|


Verse:
  Oh I was set to find... / Ah Xavier's on the border...
e|--0--0--0--0--0--0--0--0--(0--0--0)----------------------------------------------------|
C|--0--0--0--0--0--0--0--0--(0--0--0)----------------------------------------------------|
F|--2--0--2--0--0--0--4--0--(0--0--0)----------------------------------------------------|
C|--4--5--4--5--2--4--5--2--(0--2--0)----------------------------------------------------|
G|--0--2--0--2--0--2--x--0--(0--0--0)----------------------------------------------------|
C|--0--0--0--0--0--0--5--0--(0--0--0)----------------------------------------------------|
                           (optional)
Chorus:
 Oh once I held...
e|--0-0-0-0---0-0-0-0---0-0-0-------------0-0-0-x----------------------------|
C|--0-0-0-0---0-0-0-0---0-0-0-------------0-0-0-x----------------------------|
F|--4-0-2-4---4-0-2-4---4-2-0-------------4-2-0-x----------------------------|
C|--5-2-0-5---5-2-0-5---5-4-2-(2p0-0h2)---5-4-2-x----------------------------|
G|--x-0-0-x---x-0-0-x---x-x-0-------------x-x-0-x----------------------------|
C|--5-0-0-5---5-0-0-5---5-4-0-------------5-4-0-x----------------------------|

Special intro:
e|--0-0-0-0---0-0-0-0---0-0-0-0---0-0-0-0-0-0-----------------------------|
C|--0-0-0-0---2-4-0-0---0-0-0-0---0-0-0-5-4-0-----------------------------|
F|--2-4-0-0---0-0-0-0---2-4-0-0---2-0-2-5-4-0-----------------------------|
C|--0-0-5-4---0-0-5-4---0-0-5-4---0-4-0-0-0-0-----------------------------|
G|--0-0-2-2---0-0-2-2---0-0-2-2---0-0-0-0-0-0-----------------------------|
C|--0-0-0-0---0-0-0-0---0-0-0-0---0-0-0-0-0-0-----------------------------|

Special chorus (instrumental:
e|--0-0-0h1-0----0-0-0h1-0----0-0-0-0----0-0-0-0-0-0-0----------------------|
C|--0-0-0---0----0-0-0---0----0-0-0-0----0-0-0-0-0-0-0----------------------|
F|--4-6-2---0----4-6-2---0----4-2-0-6----4-2-0-0-0-0-0----------------------|
C|--5-7-4---5----5-7-4---5----5-4-2-7----5-4-2-0-2-0-2----------------------|
G|--x-x-0---2----x-x-0---2----x-x-0-x----x-x-0-0-0-0-0----------------------|
C|--5-7-0---0----5-7-0---0----5-4-0-7----5-4-0-0-0-0-0----------------------|

Order:

Intro (part 1 and 2)
Verse x2
Chorus
Intro part 2 (half the intro)
Verse x2
Chorus
Intro part 1
Chorus
Special intro
Special chorus
Chorus(played softly)

************************************

| /   slide up
| \   slide down
| h   hammer-on
| p   pull-off
| ~   vibrato
| +   harmonic
| x   Mute note
| b   Bend
| pb  Pre-bend
| br  Bend release
| pbr Pre-bend release
| brb Bend release bend

************************************

            
            
Suggest correction
Creating personal tab
Creating personal tab
You can edit any tab online and save it as your Personal.

You can edit, replace or remove any tab part or add personal notes – all changes will be seen only by you.

Personal tabs can be accessed anytime from any device, even offline.
Learn more »
comments
print report bad tab
guest
You may want to rate the tab now too:
select rating
Wanna post a correction for this tab? Suggest correction