Oops, an error
Loading. Please wait.

Criminals tab

version 1
version 1

Whole song

Interactive

1,681 views 15 this week
1 commentread comment
1 2 3 4 5
1 last vote to show rating
add to favorites
×
Save as Personal and add changes to this tab that will be seen only by you. Learn more ›
×
You can save this tab as Personal to edit and correct it or add notes. All changes will be seen only by you. Learn more »
launch autoscroll
font size
0
reset
how to read this tab
guitar tuner
edit
Autoscroll
slow
fast
+/-
esc
set tempo
stop
-------------------------------------------------------------------------------     
                      CRIMINALS - The Tallest Man On Earth
-------------------------------------------------------------------------------

This is not mine, i just transcripted the existing guitar pro file since there
isn't any tab for who doesn't have it.
So all the credits go to masked_man. 


Tuning DADF#Ad
Capo 8th fret


Intro
Verse 
Chorus 1-2-1-2-*-1-1-**
Verse 
Chorus 1-2-*-1-1-**
Verse
Bridge
Chorus 1-2-*-1-1-**
Verse
Bridge/Ending

*  = last two bars of Chorus
** = Chours Ending


Intro
    E   E   E   E   E   E   E   E     E   E   S S E   E   S S S S E    
 d|-0-------------------------------|-----0-----2-----4-----2---------|
 A|-0-------------------------------|-----0-----0---------------0-----|
F#|-0-------------------------------|---------------------------------|
 D|-----0-------0-------0-------0---|-----0-------0-------0-------0---|
 A|---------------------------------|---------------------------------|
 D|-0-------0-------0-------0-------|-0-------0-------0-------0-------|

    E   E   E   E   E   E   E   E     E   E   E   E   E   E   E   [3]
 d|---------------------------------|---------------------------------|
 A|---------------------------------|-------------------------------0-|
F#|-1-------------------------------|------------------------------3--|
 D|-----0-------0-------0-------0---|-----0-------0-------0-------0---|
 A|---------------------------------|---------------------------------|
 D|-0-------0-------0-------0-------|-0-------0-------0-------0-------|
 
Verse
    E   S S S S S S S S E   E   E     E   S S S S E   E   S S S S E
 d|---------------------------------|-------2p0-----------------------|
 A|-0-----0-----2p0-------------0---|-----------0-----2-----0---------|
F#|-----------3-------3-----1-------|-0---------------1---------0-----|
 D|-----0-------0-------0-----------|-----0-------0-------0-------0---|x2
 A|---------------------------------|---------------------------------|
 D|-0-------0-------0-------0-------|-0-------0-------0-------0-------|

Chorus 1
    E   S S S S S S S S E   E   E     E   S S S S S S E   S S S S E
 d|-----------------------------0---|-----------------0---------------|
 A|-------0-----2p0---------4-------|-----------2-----------2---------|
F#|-----------3-------3-------------|-------0-------0-----------0-----|
 D|-----0-------0-------0-----------|-----0-------0-------0-------0---|
 A|---------------------------------|-2-------2-------2-------0-------|
 D|-0-------0-------0-------0-------|---------------------------------|
 
    E   E   S S E   E   S S S S E     E   E   S S S S E   S S S S E
 d|-----------------0---------------|-----------------0---------------|
 A|-----------0-----------0---------|-----------4-----------4---------|
F#|-----5---------------------0-----|-----3---------3-----------0-----|
 D|-----5-------5-------5-------0---|-----2-------2-------2-------0---|
 A|---------------------------------|-0-------0-------0-------0-------|
 D|-5-------5-------5-------0-------|---------------------------------|
 
Chorus 2
    E   S S S S E   E   S S S S E     E   S S S S S S E   S S S S E
 d|-----------------0---------------|-----------------0---------------|
 A|-------0---------------0---------|-----------2-----------2---------|
F#|-----------3---------------0-----|-------0-------0-----------0-----|
 D|-----0-------0-------0-------0---|-----0-------0-------0-------0---|
 A|---------------------------------|-2-------2-------2-------0-------|
 D|-0-------0-------0-------0-------|---------------------------------| 
 
    E   E   S S E   E   S S S S E     E   E   S S S S E   S S S S E
 d|-----------------0---------------|-----------------0---------------|
 A|-----------0-----------0---------|-----------4-----------4---------|
F#|-----5---------------------0-----|-----3---------3-----------0-----|
 D|-----5-------5-------5-------0---|-----2-------2-------2-------0---|
 A|---------------------------------|-0-------0-------0-------0-------|  *
 D|-5-------5-------5-------0-------|---------------------------------| (These are the two last bars)
 
Chorus Ending 
    E   E   S S E   E   S S S S E     W
 d|-----------------0---------------|---------------------------------|
 A|-----------0-----------0---------|-0-------------------------------|
F#|-----5---------------------0-----|-3-------------------------------|
 D|-----5-------5-------5-------0---|-2-------------------------------|
 A|---------------------------------|-0-------------------------------|  **
 D|-5-------5-------5-------0-------|---------------------------------| (This is the Chorus Ending)
 
Bridge
    E   E   S S E   S S S S S S E     E   E   S S E   S S S S S S E
 d|---------------------------------|---------------------------------|
 A|-----2-----2-----3p2---0---2-----|-----2-----2-----3p2---0---2-----|
F#|-----1---------------------------|-----1---------------------------|
 D|-------------0-------0-------0---|-------------0-------0-------0---|
 A|--2------2-------2-------2-------|-----------------0---------------|
 D|---------------------------------|-0-------0---------------0-------|
 
    E   S S S S S S S S E   E   E     E   E   E   E   E   E   E   E
 d|---------------------------------|---------------------------------|
 A|-0-----0-----2p0-------------0---|-0---0---0---0---0---0-----------|
F#|-----------3-------3-----1-------|-6---5---4---3---1---0-------0---|
 D|-----0-------0-------0-----------|-------------------------2-------|
 A|---------------------------------|---------------------------------|
 D|-0-------0-------0-------0-------|-0-------0-------0---------------|
 
    E   E   [3] E   E   S S S S E     E   E   E   E   E   E   E   E
 d|-----------------0---------------|---------------------------------|
 A|-------------0---------0---------|-0---0---0---0---0---0---0---0---|
F#|-----1-----1---------------1-----|---------------------0---1---3---|
 D|-----2----2----------2-------2---|-------------0---2---------------|
 A|-0-------0-------0-------0-------|-0---2---4-----------------------|
 D|---------------------------------|---------------------------------| 
 
    E   S S S S S S S S E   E   E     E   S S S S E   E   S S S S E
 d|---------------------------------|-------2p0-----------------------|
 A|-0-----0-----2p0-------------0---|-----------0-----2-----0---------|
F#|-----------3-------3-----1-------|-0---------------1---------0-----|
 D|-----0-------0-------0-----------|-----0-------0-------0-------0---|
 A|---------------------------------|---------------------------------|
 D|-0-------0-------0-------0-------|-0-------0-------0-------0-------|

                                            S S S E   E   E   Q                         
                                           -2p0-----------0---0-------|
                        Ending             -----0-----2-------0-------|
                        during             -----------1-------0-------|
                      last Bridge          -------0-------------------|
                                           ---------------------------|
                                           ---0-------0-------0-------|
                                             
                                             
                                             
Lyrics

Well there were days when you thought you would just go under
And though weakens that you never understood
When you flew from the bar only 17
You didn't bleed and no one ever thought you would

And there were straits and lines and every sort of option
To stay away from broken mirrors in your friends
But the summer was stung with some mighty thread
You know I will never wait around no bed


Come see the happening rain
Come see the stainless and all that wants
Come see the loveable strain
Of someone diving before all you know
Come see the strain of the real and trial
Come meet the criminals of this Napoleon riot


And there were nights when we thought we would just surrender
To the stories of the miracles of Gauls
When you flew from your sheets when your hours are gone
Never sleep and no one ever tought you would


Come see the happening rain
Come see the stainless and all that wants
Come see the loveable strain
Of someone diving before all you know
Come see the strain of the real and trial
Come meet the criminals of this Napoleon riot


And there are illusions and then just not even wants 'em
To walk around a shiny peak of snow
And what a picture that is to be safer
Now we stand like its just for us to know


There was a time in my life when I was carried by all of you
Now I run like a mist 'till don't know what I dive in to
Come see the strain of the real and trial
Come meet the criminals of this Napoleon riot 

****************************************************************************

| s  slide-to
| h  hammer-on
| p  pull-off
| W  whole note
| H  half note
| Q  quarter note
| E  eighth note
| S  sixteenth note
|[3] tuplet
============================================================================
Suggest correction
Creating personal tab
Creating personal tab
You can edit any tab online and save it as your Personal.

You can edit, replace or remove any tab part or add personal notes – all changes will be seen only by you.

Personal tabs can be accessed anytime from any device, even offline.
Learn more »
Give kudos to tab author, rate the tab!
1 2 3 4 5
comments
print report bad tab
1 comment total.
0 reply
pure Elite 32 Apr 23, 2017 08:17 PM

👍

guest
You may want to rate the tab now too:
select rating
Wanna post a correction for this tab? Suggest correction