Oops, an error
Loading. Please wait.

Hang Me tab

271 views 6 this week
2 commentsread comments
1 2 3 4 5
1 last vote to show rating
add to favorites
×
Save as Personal and add changes to this tab that will be seen only by you. Learn more ›
×
You can save this tab as Personal to edit and correct it or add notes. All changes will be seen only by you. Learn more »
launch autoscroll
font size
0
reset
how to read this tab
guitar tuner
edit
Autoscroll
slow
fast
+/-
esc
set tempo
stop
About this tab version
Tuning is CFCFCF with a capo usually on the 8th fret. He only does this live and plays it slightly different every time. Was this info helpful? Yes No
[Intro]

F|----------------7--4----------|---------------------|----5-5--5-5------|---------------------|
C|------4--5--------------5-----|-------------------0-|----0-0--0-0--0---|-------------------0-|
F|------2--4----4--------------4|---------2-----------|----5----5--------|---------2-----------|
C|------0---------0---------0---|----1---------0------|------0---------0-|----1---------0------|
F|-0-------------------0--------|------0----2----2----|-0----------------|------0----2----2----|
C|-----------0------------------|-1-------------------|-----------0------|-1-------------------|

F|---------------------|
C|---------0-----------|
F|----2---------2----2-|
C|------0---------0----|
F|-2---------2---------|
C|---------------------|


[Verse 1]

F|--------------------|------7--4----------|--------------------|--------------------|
C|------4--5---------5|--------------5-----|---------0----------|------4--5---------5|
F|------2--4----4-----|----4--------------4|----0---------0----0|------2--4----4-----|
C|------0---------0---|------0---------0---|------2---------2---|------0---------0---|
F|-0------------------|-0------------------|-5---------5--------|-0------------------|
C|-----------0--------|-----------0--------|--------------------|-----------0--------|

F|--------------------|--------------------|--------------------|--------------------|
C|---------0---------0|---------0----------|---------0----------|------4--5---------5|
F|----0---------0-----|----0---------0----0|----0---------0---0-|----0-2--4----4-----|
C|------0---------0---|------4---------4---|------2---------2---|------0---------0---|
F|-0------------------|--------------------|-5---------5--------|-0------------------|
C|-----------4--------|-2---------2--------|--------------------|-----------0--------|

F|--------------------|--------------------|--------------------|--------------------|
C|---------0---------0|---------0----------|---------0----------|---------0----------|
F|----0---------0-----|----0---------0----0|----0---------0---0-|----0---------0----0|
C|------0---------0---|------4---------4---|------2---------2---|------4---------4---|
F|-0------------------|--------------------|-5---------5--------|--------------------|
C|-----------4--------|-2---------2--------|--------------------|-2---------2--------|

F|---------------------|
C|-------------------0-|
F|---------2-----------|
C|----1---------0------|
F|------0----2----2----|
C|-1-------------------|


[Chorus]

F|-------------------7-|---------------------|
C|------4--5-----------|-------------------0-|
F|----0-2--4----4------|---------2-----------|
C|----0-0---------0----|----1---------0------|
F|-0-------------------|------0----2----2----|
C|-----------0---------|-1-------------------|


[Verse 2]

F|--------------------|------7--4----------|--------------------|--------------------|
C|------4--5---------5|--------------5-----|---------0----------|------4--5---------5|
F|------2--4----4-----|----4--------------4|----0---------0----0|------2--4----4-----|
C|------0---------0---|------0---------0---|------2---------2---|------0---------0---|
F|-0------------------|-0------------------|-5---------5--------|-0------------------|
C|-----------0--------|-----------0--------|--------------------|-----------0--------|

F|--------------------|--------------------|--------------------|--------------------|
C|---------0---------0|---------0----------|---------0----------|------4--5---------5|
F|----0---------0-----|----0---------0----0|----0---------0---0-|----0-2--4----4-----|
C|------0---------0---|------4---------4---|------2---------2---|------0---------0---|
F|-0------------------|--------------------|-5---------5--------|-0------------------|
C|-----------4--------|-2---------2--------|--------------------|-----------0--------|

F|--------------------|--------------------|--------------------|--------------------|
C|---------0---------0|---------0----------|---------0----------|---------0----------|
F|----0---------0-----|----0---------0----0|----0---------0---0-|----0---------0----0|
C|------0---------0---|------4---------4---|------2---------2---|------4---------4---|
F|-0------------------|--------------------|-5---------5--------|--------------------|
C|-----------4--------|-2---------2--------|--------------------|-2---------2--------|

F|---------------------|
C|-------------------0-|
F|---------2-----------|
C|----1---------0------|
F|------0----2----2----|
C|-1-------------------|


[Chorus]

F|----------------7----|---------------------|----5-5--5-5------|---------------------|
C|------4--5-----------|-------------------0-|----0-0--0-0--0---|-------------------0-|
F|----0-2--4----4----0-|---------2-----------|----5----5--------|---------2-----------|
C|----0-0---------0----|----1---------0------|------0---------0-|----1---------0------|
F|-0-------------------|------0----2----2----|-0----------------|------0----2----2----|
C|-----------0---------|-1-------------------|-----------0------|-1-------------------|

F|---------------------|
C|---------0-----------|
F|----2---------2----2-|
C|------0---------0----|
F|-2---------2---------|
C|---------------------|


[Verse 3]

F|--------------------|------7--4----------|--------------------|--------------------|
C|------4--5---------5|--------------5-----|---------0----------|------4--5---------5|
F|------2--4----4-----|----4--------------4|----0---------0----0|------2--4----4-----|
C|------0---------0---|------0---------0---|------2---------2---|------0---------0---|
F|-0------------------|-0------------------|-5---------5--------|-0------------------|
C|-----------0--------|-----------0--------|--------------------|-----------0--------|

F|--------------------|--------------------|--------------------|--------------------|
C|---------0---------0|---------0----------|---------0----------|------4--5---------5|
F|----0---------0-----|----0---------0----0|----0---------0---0-|----0-2--4----4-----|
C|------0---------0---|------4---------4---|------2---------2---|------0---------0---|
F|-0------------------|--------------------|-5---------5--------|-0------------------|
C|-----------4--------|-2---------2--------|--------------------|-----------0--------|

F|--------------------|--------------------|--------------------|--------------------|
C|---------0---------0|---------0----------|---------0----------|---------0----------|
F|----0---------0-----|----0---------0----0|----0---------0---0-|----0---------0----0|
C|------0---------0---|------4---------4---|------2---------2---|------4---------4---|
F|-0------------------|--------------------|-5---------5--------|--------------------|
C|-----------4--------|-2---------2--------|--------------------|-2---------2--------|

F|---------------------|
C|-------------------0-|
F|---------2-----------|
C|----1---------0------|
F|------0----2----2----|
C|-1-------------------|


[Chorus]

F|-------------------7-|---------------------|
C|------4--5-----------|-------------------0-|
F|----0-2--4----4------|---------2-----------|
C|----0-0---------0----|----1---------0------|
F|-0-------------------|------0----2----2----|
C|-----------0---------|-1-------------------|


[Verse 4]

F|--------------------|------7--4----------|--------------------|--------------------|
C|------4--5---------5|--------------5-----|---------0----------|------4--5---------5|
F|------2--4----4-----|----4--------------4|----0---------0----0|------2--4----4-----|
C|------0---------0---|------0---------0---|------2---------2---|------0---------0---|
F|-0------------------|-0------------------|-5---------5--------|-0------------------|
C|-----------0--------|-----------0--------|--------------------|-----------0--------|

F|--------------------|--------------------|--------------------|--------------------|
C|---------0---------0|---------0----------|---------0----------|------4--5---------5|
F|----0---------0-----|----0---------0----0|----0---------0---0-|----0-2--4----4-----|
C|------0---------0---|------4---------4---|------2---------2---|------0---------0---|
F|-0------------------|--------------------|-5---------5--------|-0------------------|
C|-----------4--------|-2---------2--------|--------------------|-----------0--------|

F|--------------------|--------------------|--------------------|--------------------|
C|---------0---------0|---------0----------|---------0----------|---------0----------|
F|----0---------0-----|----0---------0----0|----0---------0---0-|----0---------0----0|
C|------0---------0---|------4---------4---|------2---------2---|------4---------4---|
F|-0------------------|--------------------|-5---------5--------|--------------------|
C|-----------4--------|-2---------2--------|--------------------|-2---------2--------|

F|---------------------|
C|-------------------0-|
F|---------2-----------|
C|----1---------0------|
F|------0----2----2----|
C|-1-------------------|


[Chorus]

F|----------------7----|---------------------|----5-5--5-5------|---------------------|
C|------4--5-----------|-------------------0-|----0-0--0-0--0---|-------------------0-|
F|----0-2--4----4----0-|---------2-----------|----5----5--------|---------2-----------|
C|----0-0---------0----|----1---------0------|------0---------0-|----1---------0------|
F|-0-------------------|------0----2----2----|-0----------------|------0----2----2----|
C|-----------0---------|-1-------------------|-----------0------|-1-------------------|

F|---------------------|
C|---------0-----------|
F|----2---------2----2-|
C|------0---------0----|
F|-2---------2---------|
C|---------------------|


[Verse 5]

F|--------------------|------7--4----------|--------------------|--------------------|
C|------4--5---------5|--------------5-----|---------0----------|------4--5---------5|
F|------2--4----4-----|----4--------------4|----0---------0----0|------2--4----4-----|
C|------0---------0---|------0---------0---|------2---------2---|------0---------0---|
F|-0------------------|-0------------------|-5---------5--------|-0------------------|
C|-----------0--------|-----------0--------|--------------------|-----------0--------|

F|--------------------|--------------------|--------------------|--------------------|
C|---------0---------0|---------0----------|---------0----------|------4--5---------5|
F|----0---------0-----|----0---------0----0|----0---------0---0-|----0-2--4----4-----|
C|------0---------0---|------4---------4---|------2---------2---|------0---------0---|
F|-0------------------|--------------------|-5---------5--------|-0------------------|
C|-----------4--------|-2---------2--------|--------------------|-----------0--------|

F|--------------------|--------------------|--------------------|--------------------|
C|---------0---------0|---------0----------|---------0----------|---------0----------|
F|----0---------0-----|----0---------0----0|----0---------0---0-|----0---------0----0|
C|------0---------0---|------4---------4---|------2---------2---|------4---------4---|
F|-0------------------|--------------------|-5---------5--------|--------------------|
C|-----------4--------|-2---------2--------|--------------------|-2---------2--------|

F|---------------------|
C|-------------------0-|
F|---------2-----------|
C|----1---------0------|
F|------0----2----2----|
C|-1-------------------|


[Chorus]

F|-------------------7-|---------------------|
C|------4--5-----------|-------------------0-|
F|----0-2--4----4------|---------2-----------|
C|----0-0---------0----|----1---------0------|
F|-0-------------------|------0----2----2----|
C|-----------0---------|-1-------------------|


[Verse 6]

F|--------------------|------7--4----------|--------------------|--------------------|
C|------4--5---------5|--------------5-----|---------0----------|------4--5---------5|
F|------2--4----4-----|----4--------------4|----0---------0----0|------2--4----4-----|
C|------0---------0---|------0---------0---|------2---------2---|------0---------0---|
F|-0------------------|-0------------------|-5---------5--------|-0------------------|
C|-----------0--------|-----------0--------|--------------------|-----------0--------|

F|--------------------|--------------------|--------------------|--------------------|
C|---------0---------0|---------0----------|---------0----------|------4--5---------5|
F|----0---------0-----|----0---------0----0|----0---------0---0-|----0-2--4----4-----|
C|------0---------0---|------4---------4---|------2---------2---|------0---------0---|
F|-0------------------|--------------------|-5---------5--------|-0------------------|
C|-----------4--------|-2---------2--------|--------------------|-----------0--------|

F|--------------------|--------------------|--------------------|--------------------|
C|---------0---------0|---------0----------|---------0----------|---------0----------|
F|----0---------0-----|----0---------0----0|----0---------0---0-|----0---------0----0|
C|------0---------0---|------4---------4---|------2---------2---|------4---------4---|
F|-0------------------|--------------------|-5---------5--------|--------------------|
C|-----------4--------|-2---------2--------|--------------------|-2---------2--------|

F|---------------------|
C|-------------------0-|
F|---------2-----------|
C|----1---------0------|
F|------0----2----2----|
C|-1-------------------|


[Outro]

F|----------------7--4----------|---------------------|----5-5--5-5------|---------------------|
C|------4--5--------------5-----|-------------------0-|----0-0--0-0--0---|-------------------0-|
F|------2--4----4--------------4|---------2-----------|----5----5--------|---------2-----------|
C|------0---------0---------0---|----1---------0------|------0---------0-|----1---------0------|
F|-0-------------------0--------|------0----2----2----|-0----------------|------0----2----2----|
C|-----------0------------------|-1-------------------|-----------0------|-1-------------------|

F|-0-|
C|-0-|
F|-0-|
C|-0-|
F|-0-|
C|---|

            
            
Suggest correction
Creating personal tab
Creating personal tab
You can edit any tab online and save it as your Personal.

You can edit, replace or remove any tab part or add personal notes – all changes will be seen only by you.

Personal tabs can be accessed anytime from any device, even offline.
Learn more »
Give kudos to tab author, rate the tab!
1 2 3 4 5
comments
print report bad tab
2 comments total.
0 reply
pure Elite 92 Jul 02, 2017 06:47 PM

awesome tab! it's pretty dead on and alot of fun to play. thanks!!

0 reply
Urulu 125 Jul 06, 2017 10:05 PM

Thanks for the reply I appreciate it! I love this song

guest
You may want to rate the tab now too:
select rating
Wanna post a correction for this tab? Suggest correction