Oops, an error
Loading. Please wait.

I Wont Be Found Tab

version 2
version 2

Whole song

Interactive

123,392 views 231 this week
10 commentsread comments
1 2 3 4 5
excellent!
x 36
add to favorites
launch autoscroll
font size
0
reset
how to read this tab
guitar tuner
Tab Pro tools
  • play this tab
  • loop segment
  • change instrument
  • show fretboard
  • metronome
×
Best way to learn
"I Wont Be Found"
Autoscroll
slow
fast
+/-
esc
set tempo
stop
Contributor
Difficulty
Capo
intermediate
8th fret
The Tallest Man on Earth - I WON'T BE FOUND

Pretty sure this is close. Lyrics at the bottom.


tuning (DADEAD)
Capo 8th fret

Intro riff:
D -------0--------|
A ---0-------0----|
E -3---3---3---3-3|x2
D --2---2---2---2-|
A 0---0---0---0---|
D ----------------|

Pre-Verse:
D ----------------|--------0-------|--------0-------|--------0-------|
A -----0-----0----|-----0-----0----|-----0-----0----|---0--------0---|
E --0h2---0----0--|--0----------0--|--3----------3--|-3---3----3---3-|
D --0---0---0---0-|--0---0---0---0-|--0---0---0---0-|--2---2----2---2|x2
A ----------------|2---2---2---2---|----------------|0---0----0---0--|
D 0---0---0---0---|----------------|0---0---0---0---|----------------|

Verse:
D ----------------|--------0-------|--------0-------|--------0-------|
A -----0-----0----|-----0-----0----|-----0-----0----|-----0-----0----|
E --0h2---0----0--|--0----------0--|--3----------3--|--3----------3--|
D --0---0---0---0-|--0---0---0---0-|--0---0---0---0-|--2---2---2---2-|x4
A ----------------|2---2---2---2---|----------------|0---0---0---0---|
D 0---0---0---0---|----------------|0---0---0---0---|----------------|

Chorus:
D --------0-------|--------0-------|--------0-------|--------0-------|
A -----0-----0----|-----0-----0----|-----0-----0----|-----0-----0----|
E --3----------3--|--2----------2--|--3----------3--|--3----------3--|
D --0---0---0---0-|--0---0---0---0-|--0---0---0---0-|--2---2---2---2-|
A --------0---0---|2---2---2---2---|----------------|0---0---0---0---|
D 0---0-----------|----------------|0---0---0---0---|----------------|

D -------0--------|
A ---0-------0----|
E -3---3---3---3--|
D --2---2---2---2-|
A 0---0---0---0---|
D ----------------|

Pre-Verse x1
Verse x2
Chorus
Pre-Verse x1

Bridge:
D --------0-------|--------0-------|--------0-------|--------0-------|
A -----0-----0----|-----0-----0----|-----0-----0----|-----0-----0----|
E --2----------2--|--0----------0--|--0----------0--|--0----------0--|
D --0---0---0---0-|--0---0---0---0-|--0---0---0---0-|--5---5---5---5-|
A 2---2---2---2---|1---1---1---1---|----------------|----------------|x2
D ----------------|----------------|4---4---4---4---|5---5---5---5---|
     bridge ending:
D --------0-------|-------0--------|
A -----0-----0----|---0-------0----|
E --3----------3--|-3---3---3---3--|
D --2---2---2---2-|--2---2---2---2-|
A 0---0---0---0---|0---0---0---0---| 
D ----------------|----------------|

Verse x2
End Chorus:                                         starts slowing
D --------0-------|--------0-------|--------0-------|--------0-------|
A -----0-----0----|-----0-----0----|-----0-----0----|-----0-----0----|
E --3----------3--|--2----------2--|--3----------3--|--3----------3--|
D --0---0---0---0-|--0---0---0---0-|--0---0---0---0-|--2---2---2---2-|
A --------0---0---|2---2---2---2---|----------------|0---0---0---0---|
D 0---0-----------|----------------|0---0---0---0---|----------------|

D -------0--------|
A ---0-------0----|
E -3---3---3---3--|
D --2---2---2---2-|
A 0---0---0---0---| 
D ----------------|

End on:
D ----------------|
A ----------------|
E -2--------------|
D -0--------------|
A ----------------|
D 0---------------|



well if I ever see the morning
just like a lizard in the spring
i'm gonna run out in the meadow
to catch the silence where it sings

i'm gonnna force the Serengeti
to disappear into my eyes
then when i hear your voices calling
i'm gonna turn just inside out

well if i ever get to slumber
just like a mole deep in the ground
hell i wont be found

deep in the dust I'll go and gather
i grow i diamond in my chest
i make reflections as the moonshine
turn to a villain as i rest

well if i ever get to slumber
just like a mole deep in the ground
hell i won't be found

i know there is a hollow
i need to fill it with a draft of all the words that i won't say
and with a quiet whisper
i send a curse upon the day that never sent the sun to see the lie

i'm gonna float up in the ceiling
i built a levee of the stars
and in my field of tired horses
i built a freeway through this forest

well if i ever get that slumber
i'll be that mole deep in the ground
and i won't be found
comments
print report bad tab
10 comments total. Showing first comments.
+2 reply
owilde wrote on March 8 2010, 04:21 pm

great tab man! top job :)

+1 reply
pezpez wrote on March 26 2010, 10:53 am

i thought the day would never come. thanks so much for tabbing this, made my night.

+3 reply
pezpez wrote on March 26 2010, 09:28 pm

but its more like,

well if I ever see the morning
just like a lizard in the spring
i'm gonna run out in the meadow
to catch the silence where it sings

i'm gonnna force the Serengeti
to disappear into my eyes
then when i hear your voices calling
i'm gonna turn just inside out

well if i ever get to slumber
just like a mole deep in the ground
hell i wont be found

deep in the dust forgotten gathered
i grow i diamond in my chest
i make reflections as the moon shines on;
turn to a villain as i rest

well if i ever get to slumber
just like a mole deep in the ground
hell i won't be found

i know there is a hollow
i need to fill it with a draft of all the words that i won't say
and with a quiet whisper
i send a curse upon the day that never used the sun to see the light

i'm gonna float up in the ceiling
i built a levee of the stars
and in my field of tired horses
i built a freeway through this farce

well if i ever get that slumber
i'll be that mole deep in the ground
and i won't be found

I want to post or [tab]
guest
You may want to rate the tab now too:
select rating
Please do not post tabs as comments. Select "correction" instead!