Oops, an error
Loading. Please wait.
We have an official I Wont Be Found tab made by UG professional guitarists. Check out the tab »
×

I Wont Be Found tab

version 3
version 3

Whole song

  • This version of the song should have everything ne... Show more

Interactive

367 views 9 this week
no commentswrite comment
1 2 3 4 5
1 last vote to show rating
add to favorites
×
Save as Personal and add changes to this tab that will be seen only by you. Learn more ›
×
You can save this tab as Personal to edit and correct it or add notes. All changes will be seen only by you. Learn more »
launch autoscroll
font size
0
reset
how to read this tab
guitar tuner
edit
Autoscroll
slow
fast
+/-
esc
set tempo
stop
About this tab version
This version of the song should have everything needed to play the right way. Alternatives included. Was this info helpful? Yes No
The Talest Man On Earth - I won't be found
Capo on 7th fret. Album version is on the 8th fret.
Tuning (DADEAD):

[Intro] 2x
D|--------0--------|
A|----0-------0----|
E|--3---3---3---3--|
D|---2---2---2---2-|
A|-0---0---0---0---|
D|-----------------|

[Pre-Verse] 2x
D|------------------|---------0--------|---------0--------|--------0--------|
A|------0-----0-----|------0-----0-----|------0-----0-----|----0-------0----|
E|---02h---0----0-0-|---0----0-----0-0-|---3----3-----3-3-|--3---3---3---3-3|
D|---0---0---0---0--|---0---0---0---0--|---0---0---0---0--|---2---2---2---2-|
A|------------------|-2---2---2---2----|------------------|-0---0---0---0---|
D|-0---0---0---0----|------------------|-0---0---0---0----|-----------------|

[Verse] [Well if I ever see the morning...]
D|------------------|---------0--------|---------0--------|---------0--------|
A|------0-----0-----|------0-----0-----|------0-----0-----|------0-----0-----|
E|---02h---0----0-0-|---0----0-----0-0-|---3----3-----3-3-|---3----3-----3-3-|
D|---0---0---0---0--|---0---0---0---0--|---0---0---0---0--|---2---2---2---2--|
A|------------------|-2---2---2---2----|------------------|-0---0---0---0----|
D|-0---0---0---0----|------------------|-0---0---0---0----|------------------|

[Verse-End] [Then when I hear your voices callin'...]
D|------------------|---------0--------|---------0--------|--------0--------|
A|------0-----0-----|------0-----0-----|------0-----0-----|----0-------0----|
E|---02h---0----0-0-|---0----0-----0-0-|---3----3-----3-3-|--3---3---3---3-3|
D|---0---0---0---0--|---0---0---0---0--|---0---0---0---0--|---2---2---2---2-|
A|------------------|-2---2---2---2----|------------------|-0---0---0---0---|
D|-0---0---0---0----|------------------|-0---0---0---0----|-----------------|

[Chorus] [Well if I ever get to slumber...]
D|---------0--------|---------0--------|---------0--------|---------0--------|
A|------0-----0-----|------0-----0-----|------0-----0-----|------0-----0-----|
E|---3----3-----3-3-|---2----2-----2-2-|---3----3-----3-3-|---3----3-----3-3-|
D|---0---0---2---2--|---0---0---0---0--|---0---0---0---0--|---2---2---2---2--|
A|---------0---0----|-2---2---2---2----|------------------|-0---0---0---0----|
D|-0---0------------|------------------|-0---0---0---0----|------------------|

[Chorus-End] [Hell, I won't be found...]
D|--------0--------|
A|----0-------0----|
E|--0h3-3---3---3--|
D|---2---2---2---2-|
A|-0---0---0---0---|
D|-----------------|

[Pre-Verse]
D|------------------|---------0--------|---------0--------|--------0--------|
A|------0-----0-----|------0-----0-----|------0-----0-----|----0-------0----|
E|---02h---0----0-0-|---0----0-----0-0-|---3----3-----3-3-|--3---3---3---3-3|
D|---0---0---0---0--|---0---0---0---0--|---0---0---0---0--|---2---2---2---2-|
A|------------------|-2---2---2---2----|------------------|-0---0---0---0---|
D|-0---0---0---0----|------------------|-0---0---0---0----|-----------------|

[Verse]
D|------------------|---------0--------|---------0--------|---------0--------|
A|------0-----0-----|------0-----0-----|------0-----0-----|------0-----0-----|
E|---02h---0----0-0-|---0----0-----0-0-|---3----3-----3-3-|---3----3-----3-3-|
D|---0---0---0---0--|---0---0---0---0--|---0---0---0---0--|---2---2---2---2--|
A|------------------|-2---2---2---2----|------------------|-0---0---0---0----|
D|-0---0---0---0----|------------------|-0---0---0---0----|------------------|

[Chorus]
D|---------0--------|---------0--------|---------0--------|---------0--------|
A|------0-----0-----|------0-----0-----|------0-----0-----|------0-----0-----|
E|---3----3-----3-3-|---2----2-----2-2-|---3----3-----3-3-|---3----3-----3-3-|
D|---0---0---2---2--|---0---0---0---0--|---0---0---0---0--|---2---2---2---2--|
A|---------0---0----|-2---2---2---2----|------------------|-0---0---0---0----|
D|-0---0------------|------------------|-0---0---0---0----|------------------|

[Chorus-End]
D|--------0--------|
A|----0-------0----|
E|--0h3-3---3---3--|
D|---2---2---2---2-|
A|-0---0---0---0---|
D|-----------------|

[Pre-Verse]
D|------------------|---------0--------|---------0--------|--------0--------|
A|------0-----0-----|------0-----0-----|------0-----0-----|----0-------0----|
E|---02h---0----0-0-|---0----0-----0-0-|---3----3-----3-3-|--3---3---3---3-3|
D|---0---0---0---0--|---0---0---0---0--|---0---0---0---0--|---2---2---2---2-|
A|------------------|-2---2---2---2----|------------------|-0---0---0---0---|
D|-0---0---0---0----|------------------|-0---0---0---0----|-----------------|

[Bridge] 2x
D|---------0--------|---------0--------|---------0--------|---------0--------|
A|------0-----0-----|------0-----0-----|------0-----0-----|------0-----0-----|
E|---2----2-----2-2-|---0----0-----0-0-|---0----0-----0-0-|---0----0-----0-0-|
D|---0---0---0---0--|---0---0---0---0--|---0---0---0---0--|---0---0---0---0--|
A|-2---2---2---2----|-1---1---1---1----|------------------|------------------|
D|------------------|------------------|-4---4---4---4----|-5---5---5---5----|

[Bridge Ending] 2x
[...the lie]
D|--------0--------|
A|----0-------0----|
E|--3---3---3---3--|
D|---2---2---2---2-|
A|-0---0---0---0---|
D|-----------------|

[Verse]
D|------------------|---------0--------|---------0--------|---------0--------|
A|------0-----0-----|------0-----0-----|------0-----0-----|------0-----0-----|
E|---02h---0----0-0-|---0----0-----0-0-|---3----3-----3-3-|---3----3-----3-3-|
D|---0---0---0---0--|---0---0---0---0--|---0---0---0---0--|---2---2---2---2--|
A|------------------|-2---2---2---2----|------------------|-0---0---0---0----|
D|-0---0---0---0----|------------------|-0---0---0---0----|------------------|

[Verse-End]
D|------------------|---------0--------|---------0--------|--------0--------|
A|------0-----0-----|------0-----0-----|------0-----0-----|----0-------0----|
E|---02h---0----0-0-|---0----0-----0-0-|---3----3-----3-3-|--3---3---3---3-3|
D|---0---0---0---0--|---0---0---0---0--|---0---0---0---0--|---2---2---2---2-|
A|------------------|-2---2---2---2----|------------------|-0---0---0---0---|
D|-0---0---0---0----|------------------|-0---0---0---0----|-----------------|

[Chorus]
D|---------0--------|---------0--------|---------0--------|---------0--------|
A|------0-----0-----|------0-----0-----|------0-----0-----|------0-----0-----|
E|---3----3-----3-3-|---2----2-----2-2-|---3----3-----3-3-|---3----3-----3-3-|
D|---0---0---2---2--|---0---0---0---0--|---0---0---0---0--|---2---2---2---2--|
A|---------0---0----|-2---2---2---2----|------------------|-0---0---0---0----|
D|-0---0------------|------------------|-0---0---0---0----|------------------|

[Outtro]
[And I won't be found...]
Slow down on this part and let it ring!
D|--------0--------|-------0~~~~~~~~~|
A|----0-------0----|-------0~~~~~~~~~|
E|--0h3-3---3---3--|-------2~~~~~~~~~|
D|---2---2---2---2-|-------0~~~~~~~~~|
A|-0---0---0---0---|-------0~~~~~~~~~|
D|-----------------|0------0~~~~~~~~~|

Alternatives
[Alternative Intro]
D|--------0--------|-----0-----0----------|--------0--------|-----0-----0--------0-|
A|----0-------0----|---4-----4-----4------|----0-------0----|---4-----4-----4----4-|
E|--0---0---0---0--|--3----3----------3-3-|--0---0---0---0--|--3----3----------3-3-|
D|---2---2---2---2-|----2----2----2----2--|---2---2---2---2-|----2----2----2----2--|
A|-0---0---0---0---|-0----0----0----0-----|-0---0---0---0---|-0----0----0----0-----|
D|-----------------|----------------------|-----------------|----------------------|

[Alternative Verse, Pre-Verse and Verse-End]
Slide on the A-string to the second fret.
D|-|-----------0--------|-|-|
A|-|--------0-----0-----|-|-|
E|-|-----0----0-----0-0-|-|-|
D|-|-----0---0---0---0--|-|-|
A|-|-1/2---2---2---2----|-|-|
D|-|--------------------|-|-|

[Lyrics]
Well if I ever see the morning
Just like a lizard in the spring
I'm gonna run out in the meadow
To catch the silence when it sings

I'm gonna force the Serengeti
To disappear into my eyes
Then when I hear your voices callin'
I'm gonna turn just inside out

Well if I ever get to slumber
Just like a mole deep in the ground
Hell, I won't be found
Deep in the dust forgotten gathered

I grow a diamond in my chest
I make reflections as the moon shines on
Turn to a villain as I rest
Well if I ever get to slumber

Just like a mole deep in the ground
Hell, I won't be found
I know there is a hollow
I need to fill it with a draft

Of all the words that I won't way
And with a quiet whisper
I send a curse upon the day
That never used the sun to see
The light

I'm gonna float up in the ceiling
I built a levee of the stars
And in my field of tired horses
I built a freeway through this farce

Well if I ever get that slumber
I'll be that mole deep in the ground
And I won't be found

************************************

| /   Slide up
| ~   Vibrato

************************************

            
            
Suggest correction
Creating personal tab
Creating personal tab
You can edit any tab online and save it as your Personal.

You can edit, replace or remove any tab part or add personal notes – all changes will be seen only by you.

Personal tabs can be accessed anytime from any device, even offline.
Learn more »
Give kudos to tab author, rate the tab!
1 2 3 4 5
comments
print report bad tab
guest
You may want to rate the tab now too:
select rating
Wanna post a correction for this tab? Suggest correction