Oops, an error
Loading. Please wait.

It Will Follow The Rain tab

version 5
version 5

Whole song

Interactive

569 views 9 this week
no commentswrite comment
1 2 3 4 5
x 3
add to favorites
×
Save as Personal and add changes to this tab that will be seen only by you. Learn more ›
×
You can save this tab as Personal to edit and correct it or add notes. All changes will be seen only by you. Learn more »
launch autoscroll
font size
0
reset
how to read this tab
guitar tuner
edit
Autoscroll
slow
fast
+/-
esc
set tempo
stop
-------------------------------------------------------------------------------     
            IT WILL FOLLOW THE RAIN - The Tallest Man On Earth
-------------------------------------------------------------------------------

Tuning DGDGA#d
Capo 8th fret

Intro x2
Verse x2 / Intro 
Verse    / Intro 
Chorus   / Intro 
Verse    / Intro 
Chorus   / Intro 
Chorus   / Intro 
Strummed x2
Chorus x5/ Intro 
Ending


Intro
D|--------------3p0------------|--------------3p0------------|
A#--------0-----------0--------|--------0-----------0--------|
G|----0-------0-----------0----|----0-------0-----------0----|
D|----0-----0-------0----------|----0-----0-------0----------|
G|--0---0-------0-------0------|--0---0-------0-------0------|
D|--------------------------3--|--------------------------3--|

Verse
D|--------------3p0------------|--------------1--------------| |
A#--------0-----------0--------|--------0-----------0--------| |
G|----0-------0-----------0----|----0-------0-----------0----| |
D|----0-----0-------0----------|----1-----1-------1-------1--| |
G|--0---0-------0-------0------|--0---0-------0-------0------| |
D|--------------------------3--|-----------------------------| |
                                                               |x2
D|--------------0--------------|--------------0--------------| |
A#--------0-----------0--------|--------0-----------0--------| |
G|----2-------2-----------2----|----0-------0-----------0----| |
D|----3-----3-------3-------3--|----1-----1-------1-------1--| |
G|-----------------------------|-----------------------------| |
D|--3---3-------3-------3------|--1---1-------1-------1------| |

D|--------------0--------------|--------------0--------------|--------------0--------------|
A#--------0-----------0--------|--------0-----------0--------|--------0-----------0--------|
G|----2-------2-----------2----|----0-------0-----------0----|----0-------0-----------0----|
D|----3-----3-------3-------3--|----1-----1-------1-------1--|----1-----1-------1-------1--|
G|-----------------------------|-----------------------------|-----------------------------|
D|--3---3-------3-------3------|--1---1-------1-------1------|--1---1-------1-------1------|

Chorus
D|--------------0--------------|--------------0--------------|
A#--------0-----------0--------|--------0-----------0--------|
G|----2-------2-----------2----|----0-------0-----------0----|
D|----3-----3-------3-------3--|----1-----1-------1-------1--|
G|-----------------------------|-----------------------------|
D|--3---3-------3-------3------|--1---1-------1-------1------|

Strummed
D|------0-------|------x-------|------x-------|------x-------|
A#------0-------|------0-------|------0-------|------0-------|
G|------0-------|------3-------|------2-------|------3-------|
D|------0-------|------1-------|------3-------|------1-------|
G|------0-------|------x-------|------x-------|------x-------|
D|------x-------|------1-------|------3-------|------1-------|

Ending
D|------1-------|------4-------|------0-------|
A#------2-------|------2-------|------0-------|
G|------2-------|------2-------|------0-------|
D|------0-------|------0-------|------0-------|
G|------0-------|------0-------|------0-------|
D|------x-------|------x-------|------x-------|



Lyrics

Have you ever seen the far side
Of a mountain swallow the sky
As you travel through the valley
And as your speedin' still far behind
Through the valley where lovers climb

Have you ever seen the locust
Lean his wings right after a plague
Like ascendin' of a dark cloud
In the sunlight to end the day
To kill the sunlight, to end the day

Yes it will follow the rain

Have you ever seen the quiet
Indecision of a man
When he's standing by the fire
With an eager friend in his hand
Will he ever quite understand

That it will follow the rain

I said oh my friend
It will follow the rain

Have you ever seen your baby
Getting caught by the lonesome wind
And the whistling round the corners
Telling you they have let her in
Separation can now begin

Yes, it will follow now the rain.

I said oh my friend.
It will follow the rain

I said oh my friend
It will follow the rain

Have you ever seen the far side
Of a mountain swallow the sky,
As you travel through the valley
As you're speeding still far behind

Through the valley where lovers climb
Where the children will blink and sigh
They have caught a lightning strike
In the jar just to watch it die
In the valley where lovers climb
Yes it will follow the rain

I said oh my friend
It will follow the rain


************************************

| /   slide up
| \   slide down
| h   hammer-on
| p   pull-off
| ~   vibrato
| +   harmonic
| x   Mute note
| b   Bend
| pb  Pre-bend
| br  Bend release
| pbr Pre-bend release
| brb Bend release bend

************************************

            
            
Suggest correction
Creating personal tab
Creating personal tab
You can edit any tab online and save it as your Personal.

You can edit, replace or remove any tab part or add personal notes – all changes will be seen only by you.

Personal tabs can be accessed anytime from any device, even offline.
Learn more »
Give kudos to tab author, rate the tab!
1 2 3 4 5
comments
print report bad tab
guest
You may want to rate the tab now too:
select rating
Wanna post a correction for this tab? Suggest correction