Oops, an error
Loading. Please wait.

King Of Spain Tab

version 2
version 2

Whole song

Interactive

111,298 views 183 this week
8 commentsread comments
1 2 3 4 5
excellent!
x 24
add to favorites
launch autoscroll
font size
0
reset
how to read this tab
guitar tuner
Autoscroll
slow
fast
+/-
esc
set tempo
stop
Help us to improve Ultimate-Guitar.com Take our survey!
×
Tuning
Capo
C G C G C E
8th fret
Open C Tuning (CGCGCE)
Capo 8th Fret.


[Pre-Intro]
                              
E|--0-3p0-----0*--0---8-7---1--3--0*-12+*---| *on 2nd time
C|--0-----2p0-----0---7-7---0--0--0*-12+*---| +natural harmonic
G|--0-------------0---0-0---2--4--0*-12+*---|
C|--0-------------0---------------0*--------|
G|--0-------------0---------------0*--------|
C|--0-------------0---------------0*--------| 2x 


[Intro Pt. 1]

E|--0-------0-------0-------0------------|
C|--0-------0-------0-------0------------|
G|--0-------0-------0-------0------------|
C|--0-------0--2s4--0-------0-4p2-2p0----|
G|--0--0h2--0-------0--0h2--0------------|
C|--0-------0-------0-------0------------|


[Intro Pt. 2]

E|--0-------0-------0-------0--------1--3--8-7--0-------0------0|
C|--0-------0-------0-------0--------0--0--7-7--0-------0------0|
G|--0-------0-------0-------0--------2--4--0-0--0-------0------0|
C|--0-------0--2s4--0-------0-4p2-0-------------0-------0--2s4-0|
G|--0--0h2--0-------0--0h2--0-------------------0--0h2--0------0|
C|--0-------0-------0-------0-------------------0-------0------0|


[First Phase of Verses]

E|--0-------0-------0-------0-----------|
C|--0-------0-------0-------0-----------|
G|--0-------0-------0-------0-----------|
C|--0-------0--2s4--0-------0-4p2-2p0---|
G|--0--0h2--0-------0--0h2--0-----------|
C|--0-------0-------0-------0-----------|


[Second Phase of Verses]

E|-------------------|
C|-------------------|
G|-2--------2--------|
C|-0--------0--------|
G|-2--0h2---2----2---|
C|---------------6---|


[Third Phase of Verses]

E|-1---0-------0--------|
C|-2---0-------0--------|
G|-0---0-------0--------|
C|-2---0-------0--2s4---|
G|-----0--0h2--0--------|
C|-----0-------0--------|


[Chorus]

E|-------1--------------------------1-|
C|-------2--------------------------0-|
G|-------0--------------------------2-|
C|-------2--------------------------0-|
G|----------------------------------2-|
C|------------------------------------|
Well if you- could reinvent my name

E|-------1--------------------------------1--|
C|-------2--------------------------------0--|
G|-------0--------------------------------2--|
C|-------2--------------------------------0--|
G|----------------------------------------2--|
C|-------------------------------------------|
Well if you- (oh-h) could redirect my day

E|-----------1--------------------0-------0-------0-------0------------------|
C|-----------2--------------------0-------0-------0-------0------------------|
G|-----------0--------------------0-------0-------0-------0------------------|
C|-----------2--------------------0-------0--2s4--0-------0--4p2-2p0---------|
G|-2-2----------------------------0--0h2--0-------0--0h2--0------------------|
C|-6-6----------------------------0-------0-------0-------0------------------|
     I wanna be the King of Spain^play 2x (2nd time carries into next verse)^


[Final Chorus]

E|-------1--------------------------1-|
C|-------2--------------------------0-|
G|-------0--------------------------2-|
C|-------2--------------------------0-|
G|----------------------------------2-|
C|------------------------------------|
Well if you- could reinvent my name

E|-------1--------------------------------1--1--1--------1|
C|-------2--------------------------------0--2--0--------2|
G|-------0--------------------------------2--0--2--------0|
C|-------2--------------------------------0--2--0--------2|
G|----------------------------------------2-----2---------|
C|--------------------------------------------------------|
Well if you- (oh-h) could redirect my day      I wanna be

E|--------------0--1--3--1---0-1-0--|
C|--------------0--0--0--0---0-0-0--|
G|--------------0--2--4--2---0-2-0--|
C|--------------0-(0)(0)(0)--0(0)0--|
G|--------------0-(2)(4)(2)--0(2)0--|
C|--------------0------------0---0--|
The- King of Spa-----in.


[Verse 1]

I never knew I was a (1)lover, 
Just cause I steal the things you (2)hide,
Just cause I focus while we're dancing, or 
(3)Just cause I offered you a ride. 

Still I am not from Barcel(1)ona, no.
I am not even from (2)Madrid.
I am a native of the North Pole
(3)And that could mess up any kid.


[Chorus]

Well if you could reinvent my name, 
Well if you (oh-h) could redirect my day, 
I wanna be the King of Spain. 


[Verse 2]

And I will settle in Pampl(1)ona
And I'll provoke the bulls with (2)words
And then I'll send a man to meet them all
(3)But he's fake, so I have heard.

And all the senoritas s(1)ighing, oh
Will be the fountain of my (2)lies.
But while we're floating in siestas
(3)Will you search for bottles and for knives?


[Chorus]

Well if you could reinvent my name, 
Well if you (oh-h) could redirect my day,
I wanna be the King of Spain.


[Intro Pts. 1&2]

And I'll wear my boots of Spanish (1)leather
Oh while I'm tightening my (2)crown.
I'll disappear in some flamenco
(3)And perhaps I'll reach the other side. (end on one open strum, not ringing)

Why are you stabbing my (1)illusion?
Oh, just cause I stole some eagle's (2)wings
Because you named me as your lover
(3)Well, I thought I could be anything.


[Final Chorus]

Well if you could reinvent my name,      
well if you (oh-h) could redirect my day, 
I wanna be the...King of Spain.



************************************

| (n)  Ghost note
| h    Hammer-on
| p    Pull-off
| s    slide

************************************
Suggest correction
What's this?
You can suggest a correction to this tab. Community and Mods will review your correction and vote to approve or reject it.
comments
print report bad tab
8 comments total. Showing first comments.
0 reply
Jeppe DG 64 wrote on March 26 2011, 12:56 pm

I think this chord:

should be like this

and sometimes you write

but nice tab!

+1 reply
Jeppe DG 64 wrote on March 26 2011, 12:58 pm

I think this chord:




should be like this:
 


and sometimes you write
 



but nice tab!

+4 reply
Jeppe DG 64 wrote on March 26 2011, 01:01 pm

ok can't write tabs, but
the chord with
2 and 6 on the deepest strings, should be 2 and 5?

guest
You may want to rate the tab now too:
select rating
Please do not post tabs as comments. Select "correction" instead!