Oops, an error
Loading. Please wait.

King Of Spain Tab

version 3
version 3

Whole song

Interactive

3,384 views 15 this week
no commentswrite comment
1 2 3 4 5
excellent!
x 3
add to favorites
launch autoscroll
font size
0
reset
how to read this tab
guitar tuner
Tab Pro tools
  • play this tab
  • loop segment
  • change instrument
  • show fretboard
  • metronome
×
Best way to learn
"King Of Spain"
Autoscroll
slow
fast
+/-
esc
set tempo
stop
Contributor
Difficulty
Capo
intermediate
8th fret
-------------------------------------------------------------------------------
                             King of Spain - The Tallest Man on Earth
-------------------------------------------------------------------------------
Tabbed by : scokayd
E-mail : scokayd@gmail.com      

Tuning : CGCGCE Capo 8th fret.

Intro 
Part I (2X)
|---0--0-0-0---0-0-0---0-0-3p2-----0--0-0-0---0-0-0---8--7----|
|---0--0-0-0---0-0-0---0-0-----2p0-0--0-0-0---0-0-0---7--7----|
|---0--0-0-0---0-0-0---0-0---------0--0-0-0---0-0-0---0--0----|
|---0--0-0-0---0-0-0---0-0---------0--0-0-0---0-0-0-----------|
|---0------0-------0---------------0------0-------0-----------|
|---0---------------------------------------------------------|


|---1--1-1-1---1-1-1---1-1-1---1-1-1/3-3-3-3---3-3-3--|-3-3-3----|-<12>-----|
|---0--0-0-0---0-0-0---0-0-0---0-0-0-0-0-0-0---0-0-0--|-0-0-0----|-<12>-----|
|---2--2-2-2---2-2-2---2-2-2---2-2-2-4-4-4-4---4-4-4--|-4-4-4----|-<12>-----|
|---0--0-0-0---0-0-0---0-0-0---0-0-0-0-0-0-0---0-0-0--|-0-0-0----|----------|
|-----------------------------------------------------|----------|----------|
|-----------------------------------------------------|-1st time-|-2nd time-|

Part II (2X)
|---0-------------------------------------------------|-1st time-----|-2nd time----|
|---0--------------0---------------0---------------0--|--------------|-------------|
|---0--0-0-0---0-0-0---0-0-0---0-0-0---0-0-0---0-0-0--|-0-0-0---0----|-0-0-0---0-0-|
|---0--0-0-0---0-0-0---0-0-2h4-4-4-0---0-0-0---0-0-0--|-0-0-4p0-2p0--|-0-0-0h2-2-2-|
|---0--0-0-0h2-2-2-0---0-0-0---0-0-0---0-0-0h2-2-2-0--|-0-0-0---0----|-0-0-0---0-0-|
|---0--0-0-0---0-0-0---0-0-0---0-0-0---0-0-0---0-0-0--|-0-0-0---0----|-0-0-0---0-0-|

Part III
|---1--1-1-1---1-1-1---1-1-1---1-1-1/3-3-3-3---3-3-3---8--7--|
|---0--0-0-0---0-0-0---0-0-0---0-0-0-0-0-0-0---0-0-0---7--7--|
|---2--2-2-2---2-2-2---2-2-2---2-2-2-4-4-4-4---4-4-4---0--0--|
|---0--0-0-0---0-0-0---0-0-0---0-0-0-0-0-0-0---0-0-0---------|
|------------------------------------------------------------|
|------------------------------------------------------------|

|---0---------------------------------|
|---0--------------0------------------|
|---0--0-0-0---0-0-0---0-0-0---0-0----|
|---0--0-0-0---0-0-0---0-0-2h4-4-4-0--|
|---0--0-0-0h2-2-2-0---0-0-0---0-0-0--|
|---0--0-0-0---0-0-0---0-0-0---0-0-0--|
                                  “I never knew i was a lover...”

Verse 
P.M.
|--------------------------------------------------------------------|
|--------------------------------------------------------------------|
|---0--0-0-0---0-0-0---0-0-0---0-0-0---0-0-0---0-0-0---0-0-0---0-0---|
|---0--0-0-0---0-0-0---0-0-2h4-4-4-0---0-0-0---0-0-0---0-0-2h4-4-4---|
|---0--0-0-0h2-2-2-0---0-0-0---0-0-0---0-0-0h2-2-2-0---0-0-0---0-0---|
|---0--0-0-0---0-0-0---0-0-0---0-0-0---0-0-0---0-0-0---0-0-0---0-0---|

|--------------------------------------------------------------------|
|--------------------------------------------------------------------|
|---2---2-2-2---2-2-2---2-2-2---2-2-2---2-2-2---2-2-2---2-2-2---2-2--|
|---0---0-0-0---0-0-0---0-0-0---0-0-0---0-0-0---0-0-0---0-0-0---0-0--|
|---0h2-2-2-2---2-2-2---2-2-2---2-2-0h2-2-2-2---2-2-2---2-2-2---2-2--|
|---0---0-0-0---0-0-0---0-0-0---0-0-0---0-0-0---0-0-0---0-0-0---0-0--|


|-----------------------------------1---1-1-1---1-1-1---1-1-1---1-1---------|
|-----------------------------------2---2-2-2---2-2-2---2-2-2---2-2---------|
|---0---0-0-0---0-0-0---0-0-0---0-0-0---0-0-0---0-0-0---0-0-0---0-0---------|
|---0---0-0-0---0-0-0---0-0-0---0-0-2---2-2-2---2-2-2---2-2-2---2-2---------|
|---2---2-2-2---2-2-2---2-2-2---2-2-----------------------------------------|
|---5---5-5-5---5-5-5---5-5-5---5-5-----------------------------------------|

|--------------------------------------------------------------------|
|--------------------------------------------------------------------|
|---0--0-0-0---0-0-0---0-0-0---0-0-0---0-0-0---0-0-0---0-0-0---0-0---|
|---0--0-0-0---0-0-0---0-0-2h4-4-4-0---0-0-0---0-0-0---0-0-2h4-4-4---|
|---0--0-0-0h2-2-2-0---0-0-0---0-0-0---0-0-0h2-2-2-0---0-0-0---0-0---|
|---0--0-0-0---0-0-0---0-0-0---0-0-0---0-0-0---0-0-0---0-0-0---0-0---|


Chorus
|--1---1-1-1---1-1-1---1-1-1---1-1-1---1-1-1---1-1-1---1-1-1---1-1----|
|--2---2-2-2---2-2-2---2-2-2---2-2-2---2-2-2---2-2-2---2-2-2---2-2----|
|--0---0-0-0---0-0-0---0-0-0---0-0-0---0-0-0---0-0-0---0-0-0---0-0----|
|--2---2-2-2---2-2-2---2-2-2---2-2-2---2-2-2---2-2-2---2-2-2---2-2----|
|---------------------------------------------------------------------|
|---------------------------------------------------------------------|

|--1---1-1-1---1-1-1---1-1-1---1-1-1---1-1-1---1-1-1---1-1-1---1-1----|
|--0---0-0-0---0-0-0---0-0-0---0-0-0---0-0-0---0-0-0---0-0-0---0-0----|
|--2---2-2-2---2-2-2---2-2-2---2-2-2---2-2-2---2-2-2---2-2-2---2-2----|
|--0---0-0-0---0-0-0---0-0-0---0-0-0---0-0-0---0-0-0---0-0-0---0-0----|
|--2---2-2-2---2-2-2---2-2-2---2-2-2---2-2-2---2-2-2---2-2-2---2-2----|
|---------------------------------------------------------------------|

|--1---1-1-1---1-1-1---1-1-1---1-1-1---1-1-1---1-1-1---1-1-1---1-1----|
|--2---2-2-2---2-2-2---2-2-2---2-2-2---2-2-2---2-2-2---2-2-2---2-2----|
|--0---0-0-0---0-0-0---0-0-0---0-0-0---0-0-0---0-0-0---0-0-0---0-0----|
|--2---2-2-2---2-2-2---2-2-2---2-2-2---2-2-2---2-2-2---2-2-2---2-2----|
|---------------------------------------------------------------------|
|---------------------------------------------------------------------|

|--1---1-1-1---1-1-1---1-1-1---1-------------------1---1-1-1---1-1----|
|--0---0-0-0---0-0-0---0-0-0---0---0---------------0---0-0-0---0-0----|
|--2---2-2-2---2-2-2---2-2-2---2---0---0-0-0---0-0-2---2-2-2---2-2----|
|--0---0-0-0---0-0-0---0-0-0---0---0---0-0-0---0-0-0---0-0-0---0-0----|
|--0---0-0-0---0-0-0---0-0-0---0---2---2-2-2---2-2--------------------|
|--2---2-2-2---2-2-2---2-2-2---2---5---5-5-5---5-5--------------------|


You can figure out the rythm and the rest of the song.
I hope this helps.
comments
We did not receive enough feedback on this tab! Please rate:
print report bad tab
1 2 3 4 5
I want to post or [tab]
guest
You may want to rate the tab now too:
select rating
Please do not post tabs as comments. Select "correction" instead!