Oops, an error
Loading. Please wait.

Leading Me Now Tab

version 2
version 2

Intro

Whole song

Interactive

2,149 views 1 this week
1 commentread comment
1 2 3 4 5
please rate
add to favorites
launch autoscroll
font size
0
reset
how to read this tab
guitar tuner
Autoscroll
slow
fast
+/-
esc
set tempo
stop
Help us to improve Ultimate-Guitar.com Take our survey!
×
Author
Capo
2nd fret
I cannot take full credit for this transcription as it is largely an adaptation of
nicwilliams1's tab of the full song. However, I felt that my changes to the intro were
significant enough to warrant the creation of a new tab. It is not perfect, but I think 
it better represents the real song than the other tabs currently listed. Enjoy.

Tuning: Open G (DBGDGD) Capo 2

INTRO
d|----------------|----------------|----------------|----------------|
B|---3---3---3---3|---3---3---3---3|---3---3---3---3|---3---3----X---|
G|--0---0---0---0-|--0---0---0---0-|--0---0---0---0-|--0---0---0-X--0|
D|----------------|----------------|----------------|------------X---|
G|0---0---0---0---|0---0---0---0---|0---0---0---0---|0---0---0---X---|
D|----------------|----------------|----------------|----------------|

d|----------------|----------------|----------------|----------------|
B|3---0---1p0---0-|--3-----1p0-----|---0----1--1--0-|---0----1p0-----|
G|--0---0-----2---|------0-----2p0-|--0---0---------|--0---0-----2p0-|
D|----0-------0---|----4-------0---|----0--------2--|----0-------0---|
G|0-------0-------|0-------0-------|--------0-------|0-------0-------|
D|----------------|----------------|2---------------|----------------|

d|----------------|----------------|----------------|----------------|
B|3---0---1p0---0-|--3-----1p0-----|---0----5p0---0-|---0------0-----|
G|--0---0-----2---|------0-----2p0-|--0---0---------|--0---0-------0-|
D|----0-------0---|----4-------0---|----0-------0---|----0-------0---|
G|0-------0-------|0-------0-------|--------5-------|0-------0-------|
D|----------------|----------------|2---------------|----------------|

There is also a varied version of the third-to-last measure that he sometimes plays:

d|----------------|----------------|----------------|----------------|
B|---3---3---3---3|---3---3---3---3|---3---3---3---3|---3---3----X---|
G|--0---0---0---0-|--0---0---0---0-|--0---0---0---0-|--0---0---0-X--0|
D|----------------|----------------|----------------|------------X---|
G|0---0---0---0---|0---0---0---0---|0---0---0---0---|0---0---0---X---|
D|----------------|----------------|----------------|----------------|

d|----------------|----------------|----------------|----------------|
B|3---0---1p0---0-|--3-----1p0-----|---0----1--1--0-|---0----1p0-----|
G|--0---0-----2---|------0-----2p0-|--0---0---------|--0---0-----2p0-|
D|----0-------0---|----4-------0---|----0--------2--|----0-------0---|
G|0-------0-------|0-------0-------|--------0-------|0-------0-------|
D|----------------|----------------|2---------------|----------------|

d|----------------|----------------|----------------|----------------|
B|3---0---1p0---0-|--3-----0-------|---0----5p0---0-|---0------0-----|
G|--0---0-----2---|------2---2---0-|--0---0---------|--0---0-------0-|
D|----0-------0---|----0-------0---|----0-------0---|----0-------0---|
G|0-------0-------|0-------0-------|--------5-------|0-------0-------|
D|----------------|----------------|2---------------|----------------|
Suggest correction
Give kudos to tab author, rate the tab!
1 2 3 4 5
comments
print report bad tab
1 comment total.
0 reply
faschuman 10 wrote on February 16 2013, 11:15 am

Raw Folk.
This is my interpretation of The Dreamer: http://ow.ly/fDYbp

guest
You may want to rate the tab now too:
select rating
Please do not post tabs as comments. Select "correction" instead!