Oops, an error
Loading. Please wait.

Leading Me Now Tab

version 2
version 2

Whole song

Interactive

28,326 views 81 this week
6 commentsread comments
1 2 3 4 5
x 29
add to favorites
launch autoscroll
font size
0
reset
how to read this tab
guitar tuner
Autoscroll
slow
fast
+/-
esc
set tempo
stop
Help us to improve Ultimate-Guitar.com Take our survey!
×
Author
Difficulty
Capo
intermediate
2nd fret
-------------------------------------------------------------------------------
                   Leading Me Now - The Tallest Man On Earth
-------------------------------------------------------------------------------
Tabbed by: Neil Wicker
E-mail: wicker101@hotmail.co.uk

Tuning: Standard

CAPO 2

**please note**
This song is easily playable in standard tuning so I tabbed it out for that instead of
the original open G tuning. This is loosely based on the other tabs up here but I
corrected some mistakes in them.

I've also done Revelation blues in standard tuning which is a lot fun to learn but more
difficult than this. Check the tab section of my profile to find it. 

you can hear what this version sounds like here: https://soundcloud.com/wicker101/leading-me-now

intro:

  G
e|------------------------------|------------------------------|
B|------3------3------3------3--|------3------3------3------3--|
G|-----0------0------0------0---|-----0------0------0------0---|
D|------------------------------|------------------------------|
A|------------------------------|------------------------------|
E|--3------3------3------3------|--3------3------3------3------|

e|------------------------------|------------------------------|
B|------3------3------3------3--|------3------3---------x------|
G|-----0------0------0------0---|-----0------0------0---x--0---|
D|------------------------------|-----------------------x------|
A|------------------------------|-----------------------x------|
E|--3------3------3------3------|--3------3------3------x------|

Interlude:

e|-------------------------|-------------------------|
B|--3-----0-----1p0-----0--|-----3--------1p0--------|
G|-----0-----0-------2-----|-----------0-------2--0--|
D|--------0----------0-----|--------4----------0-----|
A|-------------------------|-------------------------|
E|--3-----------3----------|--3-----------3----------|

e|-------------------------|-------------------------|
B|------0-------1--1-----0-|------0-------1p0--------|
G|-----0-----0--0--0-----0-|-----0-----0-------2p0---|
D|--------0-----------2----|--------0----------0-----|
A|-------------------------|-------------------------|
E|--0-----------3----------|--3-----------3----------|

e|-------------------------|-------------------------|
B|--3-----0-----1p0-----0--|-----3--------1p0--------|
G|-----0-----0-------2-----|-----------0-------2--0--|
D|--------0----------0-----|--------4----------0-----|
A|-------------------------|-------------------------|
E|--3-----------3----------|--3-----------3----------|

e|-------------------------|-------------------------|
B|------0-------5-------0--|------0----------0-------|
G|-----0-----0--0--4----0--|-----0-----0-----------0-|
D|--------0----------0-----|--------0-----------0----|
A|--------------3----------|-------------------------|
E|--0----------------------|--3-----------3----------|

Verse:

e|-------------------------|-------------------------|
B|-----3-----------3-------|-----0-----------0-------|
G|----0------0-----------0-|----0------0-----------0-|
D|--------4-----------4----|--------0-----------0----|
A|-------------------------|-------------------------|
E|-3------------3----------|-0------------0----------|

e|-------------------------|-------------------------|
B|-----1-----------1-------|-----0--------1p0--------|
G|----0------0-----------0-|----0------0-------2p0---|
D|--------2-----------2----|--------0----------0-----|
A|-------------------------|-------------------------|
E|-3------------3----------|-3------------3----------|

e|-------------------------|-------------------------|
B|-----3-----------3-------|-----0-----------0-------|
G|----0------0-----------0-|----0------0-----------0-|
D|--------4-----------4----|--------0-----------0----|
A|-------------------------|-------------------------|
E|-3------------3----------|-0------------0----------|

e|-------------------------|-------------------------|
B|-----1-----------1-------|-----0--------1p0--------|
G|----0------0-----------0-|----0------0-------2p0---|
D|--------2-----------2----|--------0----------0-----|
A|-------------------------|-------------------------|
E|-3------------3----------|-3------------3----------|

e|-------------------------|-------------------------|
B|-----0-----------0-------|-----0-----------0-------|
G|----2------2-----------2-|----2------2-----------2-|
D|--------0-----------0----|--------0-----------0----|
A|-5------------5----------|-5------------5----------|
E|-------------------------|-------------------------|

e|-------------------------|-------------------------|
B|-----1-----------1-------|-----0-----------0-------|
G|----0------0-----------0-|----2------2-----------2-|
D|--------2-----------2----|--------0-----------0----|
A|-------------------------|-5------------5----------|
E|-3------------3----------|-------------------------|

alternate interlude:

e|-------------------------|-------------------------|
B|--3-----0-----1p0-----0--|-----3--------1p0--------|
G|-----0-----0-------2-----|-----------0-------2--0--|
D|--------0----------0-----|--------4----------0-----|
A|-------------------------|-------------------------|
E|--3-----------3----------|--3-----------3----------|

e|-------------------------|-------------------------|
B|------0-------1--1-----0-|------0-------1p0--------|
G|-----0-----0--0--0-----0-|-----0-----0-------2p0---|
D|--------0-----------2----|--------0----------0-----|
A|-------------------------|-------------------------|
E|--0-----------3----------|--3-----------3----------|

e|-------------------------|-------------------------|
B|--3-----0-----1p0-----0--|-----3--------0----------|
G|-----0-----0-------2-----|----------2------2----0--|
D|--------0----------0-----|--------0----------0-----|
A|-------------------------|-------------------------|
E|--3-----------3----------|--3-----------3----------|
                        [different ^]
e|-------------------------|-------------------------|
B|------0-------5-------0--|------0----------0-------|
G|-----0-----0--0--4----0--|-----0-----0-----------0-|
D|--------0----------0-----|--------0-----------0----|
A|--------------3----------|-------------------------|
E|--0----------------------|--3-----------3----------|


Bridge:

e|-------------------------|-------------------------|
B|-----0-----------0-------|-----0-----------0-------|
G|----0------0-----------0-|----0------0-----------0-|
D|--------2-----------2----|--------4-----------4----|
A|-3------------3----------|-5------------3----------|
E|-------------------------|-------------------------|

e|-------------------------|-------------------------|
B|-----0--------1p0--------|-----1-----------1-------|
G|----0------0--------2p0--|----0------0-----------0-|
D|--------0-----------0----|--------2-----------2----|
A|-------------------------|-------------------------|
E|-3------------3----------|-3------------3----------|

e|-------------------------|-------------------------|
B|-----1-----------1-------|-----0-----------0-------|
G|----0------0-----------0-|----2------2-----------2-|
D|--------2-----------2----|--------0-----------0----|
A|-------------------------|-5------------5----------|
E|-3------------3----------|-------------------------|

e|-------------------------|-------------------------|
B|-----0--------1p0--------|-----1-----------1-------|
G|----0------0--------2p0--|----0------0-----------0-|
D|--------0-----------0----|--------2-----------2----|
A|-------------------------|-------------------------|
E|-3------------3----------|-3------------3----------|

e|-------------------------|-------------------------|
B|-----1-----------1-------|-----0-----------0-------|
G|----0------0-----------0-|----2------2-----------2-|
D|--------2-----------2----|--------0-----------0----|
A|-------------------------|-5------------5----------|
E|-3------------3----------|-------------------------|

e|-------------------------|-------------------------|
B|-----0-----------0-------|-----0-----------0-------|
G|----0------0-----------0-|----2------2-----------2-|
D|--------0-----------0----|--------0-----------0----|
A|-5------------5----------|-5------------5----------|
E|-------------------------|-------------------------|

e|-------------------------|
B|-----0-----------0-------|
G|----0------0-----------0-|
D|--------0-----------0----|
A|-5------------5----------|
E|-------------------------|



Song structure:
intro
interlude
verse
interlude
verse
alternate interlude
bridge
verse
interlude
bridge
interlude
alternate interlude

please enjoy and remember to rate! :)

lyrics:
Verse:
By the eyes of the very young
It’s a sudden good attack
On our weakness, my horse and I
Carry anger forth and back

Chorus:
But we’ll make it somehow
You have all what’s mine
And you are leading me now

Verse:
On the gallop to mother’s field
We would lose our breath and fight
And you give me the look of thorns
We give liars every night

Chorus:
But I get you somehow
Leave the reins inside
You are leading me now

Bridge:
And every time we wonder
What we left back in your hearts
Could you see we’re dreaming
Though our minds just fall apart

Chorus:
But we will end up somehow
With a peaceful mind
And you are leading me now

Verse:
To the site where I flew from you
When your pace just scared me blind
We will come back and joke of days
When I sold you to the unkind

Chorus:
We will end up somehow
With a peaceful mind
And you are leading me now

************************************

| /   slide up
| \   slide down
| h   hammer-on
| p   pull-off
| ~   vibrato
| +   harmonic
| x   Mute note
| b   Bend
| pb  Pre-bend
| br  Bend release
| pbr Pre-bend release
| brb Bend release bend

************************************
Suggest correction
comments
print report bad tab
6 comments total. Showing first comments.
+2 reply
gabe.w 10 Mar 15, 2013 05:01 PM

alternate bar is like this:

e|-------------------------|-------------------------|
B|--3-----0-----1p0-----0--|-----3--------0----------|
G|-----0-----0-------2-----|-----------2-----2----0--|
D|--------0----------0-----|--------0----------0-----|
A|-------------------------|-------------------------|
E|--3-----------3----------|--3-----------3----------|
[different ^]

+1 reply
wikaman1 1,875 Apr 13, 2013 07:20 AM

Yep you're right about that, tab has been updated.

+2 reply
KSE_Victor 265 Jun 02, 2013 02:40 PM

Great work man!

guest
You may want to rate the tab now too:
select rating
Wanna post a correction for this tab? Suggest correction