Oops, an error
Loading. Please wait.

Like The Wheel tab

version 1
version 1

Whole song

  • This is a tab for a recent, live version of Like T... Show more
45,783 views 66 this week
4 commentsread comments
1 2 3 4 5
x 20
add to favorites
×
Save as Personal and add changes to this tab that will be seen only by you. Learn more ›
×
You can save this tab as Personal to edit and correct it or add notes. All changes will be seen only by you. Learn more »
launch autoscroll
font size
0
reset
how to read this tab
guitar tuner
edit
Autoscroll
slow
fast
+/-
esc
set tempo
stop
Also, this is not exact, but I believe it to be very, very close, and
no one could tell the difference unless listening to this tab and the real song side by side.

Tuning: DADF#AD
Capo 4


[Intro]


D |----------------|
A |----------0-----|
F#|------0-------0-|    
D |----0-------0---|
A |----------------|
D |0-------0-------|(x2)

                                           p
D |-------------------------2--0----|
A |-----------0-------------------0-|
F#|-------0-------0-------3---------|
D |-----0-------0-------0-----------|
A |-----------------4-------4-------|
D |-0-------0-----------------------|

D |----------------0---------------|
A |----------0---------------0-----|
F#|------0-------0-------0-------0-|
D |----0-------0-------0-------0---|
A |2-------2-------2-------2-------|
D |--------------------------------|

    s                                   p
D |------------------2-----2-0---0-|
A |----------------------------4---|
F#|------3---3---1-------1---------|
D |----0-------0-------0-----------|
A |----------------0-------0-------|
D |2-5-----5-----------------------|
                                        p
D |-------------------------4-0---0-|
A |-----------0---------------------|
F#|-------0-------0-------0---------|
D |-----0-------0-------0-------0---|
A |---------------------------------|
D |-0-------0-------0-------0-------|

D |----------------|
A |----------0-----|
F#|------0-------0-|    
D |----0-------0---|
A |----------------|
D |0-------0-------|(x2)


[Verse]

D |--------------------------------|
A |----------0---------------0-----|
F#|------0-------0-------3-------3-|
D |----0-------0-------0-------0---|
A |----------------4-------4-------|
D |0-------0-----------------------|

D |----------------0---------------|
A |----------0---------------0-----|
F#|------0-------0-------0-------0-|
D |----0-------0-------0-------0---|
A |2-------2-------2-------2-------|
D |--------------------------------|

    s
D |----------------------0---------|
A |------------------------------0-|
F#|------3---3---1---1-------1-----|
D |----0-------0-------0-------0---|
A |----------------0-------0-------|
D |2-5-----5-----------------------|

                 h
D |--------------0-----------------||
A |--------------------------0-----||
F#|------0---0-3---------3-------3-||
D |----0---------------0-------0---||
A |--------------------------------||
D |0-------0-------0-------0-------||


[Chorus]

D |------------------------------0-|
A |----------0---------------0-----|
F#|------3-------3-------3---------|
D |----0-------0-------2-------2---|
A |----------------0-------0-------|
D |5-------5-----------------------|

D |--------------------------------|
A |------0-------------------0-----|
F#|--3-----------3-------0-------0-|
D |----2-------2-------0-------0---|
A |0-------0-----------------------|
D |----------------0-------0-------|

D |--------------0-----------------||
A |----------0-----------0---------||
F#|------3-----------3-----------3-||
D |----0-------0-------0-------0---||
A |--------------------------------||
D |5-------5-------5-------5-------||

D |--------------------------------|
A |----------0---------------0-----|
F#|------0-------0-------0-------0-|
D |----2-------2-------7-------7---|
A |2---------------7---------------|
D |2-------2-------7-------7-------|


[Outro]
                                        p
D |------------------------4-0---0-|
A |----------0---------------------|
F#|------0-------0-------0---------|
D |----0-------0-------0-------0---|
A |--------------------------------|
D |0-------0-------0-------0-------|


Song Structure:

[Intro] (x1)
[Verse] (x1)
[Chorus](x1)
[Intro] (x1) (sans first measure)
[Verse] (x1)
[Chorus](x1)
[Intro] (x1) (sans first measure), (Extend by playing last 2 measures of verse 4 times)
[Verse] (x1)
[Chorus](x1)
[Outro] (x4)


Lyrics

Oh I wish I was the sparrow in your kid's eye
Like a fly above is summer all day long
On an island in the heart he has to carry
Past the many you have let into your song

And I said oh my lord why am i not strong
Like the wheel that keeps travelers traveling on
Like the wheel that will take you home

And in the forest someone is whispering to a tree now
This is all I am so please don't follow me
And it's your brother in the shaft that I'm swinging
Please let the kindness of forgetting set me free

And he said oh my lord why am I not strong
Like the wheel that keeps travelers traveling on
Like the wheel that will take you home

And on this Sunday someone's sititng down to wonder
Where the hell among these mountains will I be?
There's a cloud behind the cloud to which I'm yelling
I could hear you sneak around so easily

And I said oh my lord why am I not strong
Like the branch that keeps hangman hanging on
Like the branch that will take me home



************************************

| p    Pull-off
| h    hammer on
| s    slide
| "||" indicates repeat the enclosed measures once.

************************************

            
            
Suggest correction
Creating personal tab
Creating personal tab
You can edit any tab online and save it as your Personal.

You can edit, replace or remove any tab part or add personal notes – all changes will be seen only by you.

Personal tabs can be accessed anytime from any device, even offline.
Learn more »
comments
print report bad tab
4 comments total. Showing first comments.
0 reply
Grahnson 151 Oct 10, 2011 05:30 AM

Very nice tab, although the tuning is wrong. If you listen to this: http://www.youtube.com/watch?v=bW9wULjz0Ng you can hear that it's actually tuned DADEAd and not DADF#Ad!
So the first grip is actually played:

d-------------------
A------------0------
E--------2-------2--
D------0-------0----
A-------------------
D--0-------0--------

and so forth..

thanks

+1 reply
Grahnson 151 Oct 10, 2011 05:31 AM

Very nice tab, although the tuning is wrong. If you listen to this: http://www.youtube.com/watch?v=bW9wULjz0Ng you can hear that it's actually tuned DADEAd and not DADF#Ad!
So the first grip is actually played:

d-------------------
A------------0------
E--------2-------2--
D------0-------0----
A-------------------
D--0-------0--------

and so forth..

thanks

+1 reply
noahopolsky 211 Nov 03, 2013 02:38 PM

Your tab is a little confusing with the placement of the pull-offs, hammer-ons, and slides. Could you add them to the actual tabs as opposed to placing them above the bars?
Thanks

guest
Wanna post a correction for this tab? Suggest correction