Oops, an error
Loading. Please wait.

Little Nowhere Town tab

version 1
version 1

Whole song

796 views 15 this week
1 commentread comment
1 2 3 4 5
2 more votes to show rating
add to favorites
×
Save as Personal and add changes to this tab that will be seen only by you. Learn more ›
×
You can save this tab as Personal to edit and correct it or add notes. All changes will be seen only by you. Learn more »
launch autoscroll
font size
0
reset
how to read this tab
guitar tuner
edit
Autoscroll
slow
fast
+/-
esc
set tempo
stop
Author
Difficulty
intermediate
-------------------------------------------------------------------------------
                             Little Nowhere Town - The Tallest Man On Earth
-------------------------------------------------------------------------------
Tabbed by:Lunus
E-mail: Lunus@live.se

Tuning: standard

e|--------------------------------------------------------------3-----3-----0---|
B|-----------0h1-0-----0--------1p0------------------1------------------------3-|
G|--0-0-0-2---------2-----0-------------2--0------------0---------------0-------|
D|---------------------------0-------1--------2---------------0-----------------|
A|-----------3---------3--------2----------------2---3-----3--------------------|
E|------3----------------------------------0------------------3----3--3----3----|

e|-----0------------------------------------------------------------------------|
B|-------------------0------0--------------------1--------------3---------------|
G|---------2h4--2-0----0-------2p0---0--0------------0-------0--0---------------|
D|-----------------------0---------1-------2---------------4----4--4------------|
A|---------3----------------2-----------------2--3------3--5----------5---------|
E|--3----------------3------------------0---------------------------------------| X2



************************************

| /   slide up
| \   slide down
| h   hammer-on
| p   pull-off
| ~   vibrato
| +   harmonic
| x   Mute note
| b   Bend
| pb  Pre-bend
| br  Bend release
| pbr Pre-bend release
| brb Bend release bend

************************************
Suggest correction
Creating personal tab
Creating personal tab
You can edit any tab online and save it as your Personal.

You can edit, replace or remove any tab part or add personal notes – all changes will be seen only by you.

Personal tabs can be accessed anytime from any device, even offline.
Learn more »
Give kudos to tab author, rate the tab!
1 2 3 4 5
comments
print report bad tab
1 comment total.
0 reply
Verbal Kint 170 Oct 21, 2015 11:11 AM

https://www.youtube.com/watch?v=a27sRIfykIs

Hah, this looks familiar. Check out this beautiful acoustic version by Jake Feeney, quite sure the author here was inspired by that; so was i. Will be a good helper learning this outstanding song.

guest
You may want to rate the tab now too:
select rating
Wanna post a correction for this tab? Suggest correction