Oops, an error
Loading. Please wait.

Love Is All Tab

version 1
version 1

Whole song

Interactive

105,123 views 21 this week
no commentswrite comment
1 2 3 4 5
worth learning
x 8
add to favorites
launch autoscroll
font size
0
reset
how to read this tab
guitar tuner
Tab Pro tools
  • play this tab
  • loop segment
  • change instrument
  • show fretboard
  • metronome
×
Best way to learn
"Love Is All"
Autoscroll
slow
fast
+/-
esc
set tempo
stop
Contributor
The Tallest man on earth - Love is all

capo7

Intro
                          walk down
d|-0--0--0--------0----0---0--0--0--0--|
B|-0--0--0-h1-0h1---1--1---0--0--0--0--|
G|-0--0--0--0----------0---0--0--0--2--|
D|-2--2--0-h2----------2---2--0--2--0--|
A|-2--0--0--3----------x---x--x--2--0--|
E|-0--2--3--3----------3---3--2--0--2--|

*
d|-0-----0------0------0--| 2x
B|-1-p0--0-h3p0-1-p0h1-0--|
G|-0-----0------2------0--|
D|-2-----0------0------0--|
A|-0-----2------0------2--|
E|-3-----3------2------3--|

Verse

d|-0---0---0---0-------0------0--0-0-0--0-----|
B|-0---0---0---0h1-0h1---1----1--0-0-0--0-----|
G|-0---0---0---0--------------0--0-0-0--2-----| back to*
D|-2---2---0---0h2------------0--0-0-2--0-----|
A|-2---0---0---0--------------2--2-0-2--0-----|
E|-0---2---3---3--------------3--3-2-0--2-----|


Chorus
d|--0----0---0----0-----0--0-0--0-0-0-0---0----0-------0----0----|
B|--0-h1---0-0-h1---0---0--1-0--1-1-1-0---1-h1---0--h1---0--0----|
G|--2--------2----------0--0-0--0-0-0-2---2-----------------2----|*
D|--0--------0----------0--2-0--2-0-2-0---2-----------------0----|
A|--0--------0----------2--x-2--x-2-0-0---0-----------------0----|
E|--2--------2----------3--3-3--3---0-2---------------------2----|


Verse
Well I walk upon the river like it's easier than land
Evil's in my pocket and your will is in my hand
Oh, your will is in my hand

Verse
And I'll throw it in the current that I stand upon so still
Love is all, from what I've heard, but my heart's learned to kill
Oh, mine has learned to kill

Chorus
Oh, I said I could rise
From the harness of our goals
Here come the tears
But like always, I let them go
Just let them go

Verse
And now spikes will keep on falling from the heavens to the floor
The future was our skin and now we don't dream anymore
No, we don't dream anymore

Verse
Like a house made from spider webs and the clouds rolling in
I bet this mighty river's both my savior and my sin
Oh, my savior and my sin

Chorus
Oh, I said I could rise
From the harness of our goals
Here come the tears
But like always, I let them go
Just let them go

Verse
Well I walk upon the river like it's easier than land
Evil's in my pocket and your strength is in my hand
Your strength is in my hand

Verse
And I'll throw you in the current that I stand upon so still
Love is all, from what I've heard, but my heart's learned to kill
Oh, mine has learned to kill

Chorus
Oh, I said I could rise
From the harness of our goals
Here come the tears
But like always, I let them go
Just let them go 
comments
print report bad tab
I want to post or [tab]
guest
You may want to rate the tab now too:
select rating
Please do not post tabs as comments. Select "correction" instead!