Oops, an error
Loading. Please wait.

Moonshiner tab

268 views 3 this week
1 commentread comment
1 2 3 4 5
x 3
add to favorites
×
Save as Personal and add changes to this tab that will be seen only by you. Learn more ›
×
You can save this tab as Personal to edit and correct it or add notes. All changes will be seen only by you. Learn more »
launch autoscroll
font size
0
reset
how to read this tab
guitar tuner
edit
Autoscroll
slow
fast
+/-
esc
set tempo
stop
About this tab version
TTMOE's take on 'moonshiner'. Couldn't find any tab of this fantastic version so I figured I'd just make one. Was this info helpful? Yes No
Old folk song made famous by Dylan, this is TTMOE's version of it.
Sorry for the slightly fuzzy tab, first attempt ever but I think the notes
should be correct.
Some comments on this: the verse is basically the same as most of the intro,
he plays the intro once and then repeats the second part of it during the 
verse/chorus, which is why I split this into two parts.

[First part starting]
D|-------------0-------------------------------------------------------------|
B|-------0-------------0-----------0------0---0-------0-------0--------------|
G|---0-------0-----0-------0---0--------0---0-----0-------2-------2----------|
D|---2-----2-----2-------2-----2-----2---5---5----5-----5---5-------5--------|
G|-----------------------------------------5----0---0-----0-----0------------|
D|-2---2-------2-----2-------2---2-----5-------------------------------------|

                                                    
D|-----------2p0--------------------0-------0------|
B|-------0-------------0------0h1-------1----------|
G|---0-------------0----------------------------0--|
D|---5-----5-----5-------5----0-------0---0-------0|
G|-0---0-----0-------0-----------------------------|
D|-------------------------0------0-----0-----0----|

[Second part starting]
D|-------------------------|
B|------0------0---0-------|
G|--0--------0---0---------|
D|--2-----2---5---5--------|
G|--------------5----------|
B|2---2-----5--------------|

D|-------------------------------------------------------0-------------------|
B|-------0-------0-------------0---5p3-------0-------1-----------0-----------|
G|---0-------2-------2-----0-------------0-------2-----------2---------------|
D|---5-----5---5-------5---5-----5-----5---------2-----2---2-------2---------|
G|---------------------------------------------------------------------------|
D|-5---5-----5-----5-----5---5-----5-------5---0---0-----0-----0-------------|

D|-----------2---------------------4---------------------2p0-----------------|
B|-------1-----------1---------3-----------3---------0--------------0--------|
G|---0-----------0---------0-----------0---------0-------------0-------------|
D|---2-----2---2-------2---4-----4---4-------4---0-----0-----0---------0-----|
G|-0---0-----0-----0---------------------------0---0-----0-------0-----------|
D|-----------------------0---0-----0-----0-----------------------------------|

D|-----------2---------------------2-----------------------------------------|
B|-------1-----------1---------1-----------0---------0------0---0------------|
G|---0-----------0---------0-----------0---------0--------0---0--------------|
D|---2-----2---2-------2---2-----2---2-------0---2-----2---5---5-------------|
G|-0---0-----0-----0-----0---0-----0-----0-------------------5---------------|
D|---------------------------------------------2---2-----5-------------------|

D|-------------------------------------------------------0-------------------|
B|-------0-------0-------------0---5p3-------0-------1-----------0-----------|
G|---0-------2-------2-----0-------------0-------2-----------2---------------|
D|---5-----5---5-------5---5-----5-----5---------2-----2---2-------2---------|
G|---------------------------------------------0---0-----0-----0-------------|
D|-5---5-----5-----5-----5---5-----5-------5---------------------------------|

D|-----------0---------------------------------------------------------------|
B|-------1-----------0-------------------------------------------------------|
G|---2-----------2-----------------------------------------------------------|
D|---2-----2---2-------0-----------------------------------------------------|
G|-0---0-----0-----0---------------------------------------------------------|
D|---------------------------------------------------------------------------|

He does small variations of the part just above where he plays Am, he just picks
the strings differently.



************************************

| h  Hammer-on
| p  Pull-off

************************************
Suggest correction
Creating personal tab
Creating personal tab
You can edit any tab online and save it as your Personal.

You can edit, replace or remove any tab part or add personal notes – all changes will be seen only by you.

Personal tabs can be accessed anytime from any device, even offline.
Learn more »
Give kudos to tab author, rate the tab!
1 2 3 4 5
comments
print report bad tab
1 comment total.
0 reply
daraotl 12 Feb 28, 2017 02:17 PM

So glad someone decided to tab this, class cover of the song. I haven't learned the full thing yet, but you're spot on so far. Thanks!

guest
You may want to rate the tab now too:
select rating
Wanna post a correction for this tab? Suggest correction