Oops, an error
Loading. Please wait.

On Every Page tab

version 1
version 1

Whole song

Interactive

181 views 3 this week
no commentswrite comment
1 2 3 4 5
3 more votes to show rating
add to favorites
×
Save as Personal and add changes to this tab that will be seen only by you. Learn more ›
×
You can save this tab as Personal to edit and correct it or add notes. All changes will be seen only by you. Learn more »
launch autoscroll
font size
0
reset
how to read this tab
guitar tuner
edit
Autoscroll
slow
fast
+/-
esc
set tempo
stop
The Tallest Man On Earth
On every page
Standard Tuning
Capo 7th fret

[intro]
e|-----0-3-3s5-3------|
B|----1--------3-3p1p0|
G|---2----------------|
D|--------------------|
A|-0------------------|
E|--------------------|

e|---------0----|
B|-------3---3--|
G|-----2-------2|
D|---3----------|
A|-2------------|
E|--------------|

e|---------0-3-0-------|
B|-------3-------3p0---|
G|-----0-------------0-|
D|---3-----------------|
A|---------------------|
E|-3-------------------|

e|-------------|
B|-------3p1p0-|
G|-----0-------|
D|---2---------|
A|-3-----------|
E|-------------|

e|--------|
B|---0---0|
G|-2---1--|
D|--------|
A|-2---2--|
E|--------|

e|-----------0--|
B|-------0h1-1--|
G|-----2-----2--|
D|---2----------|
A|-0------------|
E|--------------|
(I use my ring finger to strum the three last ones upwards)

e|---------0----|
B|-------3---3--|
G|-----2-------2|
D|---3----------|
A|-2------------|
E|--------------|

e|---------0-3-0-------|
B|-------3-------3p0---|
G|-----0-------------0-|
D|---3-----------------|
A|---------------------|
E|-3-------------------|

e|-------------|
B|-------3p1p0-|
G|-----0-------|
D|---2---------|
A|-3-----------|
E|-------------|

e|--------|
B|---0---0|
G|-2---1--|
D|--------|
A|-2---2--|
E|--------|

[verse]
When you just tell them what i
e|-----0-3-3s5-3------|
B|----1--------3-3p1p0|
G|---2----------------|
D|--------------------|
A|-0------------------|
E|--------------------|

cannot say
e|---------0----|
B|-------3---3--|
G|-----2-------2|
D|---3----------|
A|-2------------|
E|--------------|

When you just shine upon the
e|---------0-3-0-------|
B|-------3-------3p0---|
G|-----0-------------0-|
D|---3-----------------|
A|---------------------|
E|-3-------------------|

 ghosts long my
e|-------------|
B|-------3p1p0-|
G|-----0-------|
D|---2---------|
A|-3-----------|
E|-------------|

 way
e|--------|
B|---0---0|
G|-2---1--|
D|--------|
A|-2---2--|
E|--------|


i drop the game of throwing
e|-----0-3-3s5-3------|
B|----1--------3-3p1p0|
G|---2----------------|
D|--------------------|
A|-0------------------|
E|--------------------|

knives alone
e|---------0----|
B|-------3---3--|
G|-----2-------2|
D|---3----------|
A|-2------------|
E|--------------|

there must be marks on every
e|---------0-3-0-------|
B|-------3-------3p0---|
G|-----0-------------0-|
D|---3-----------------|
A|---------------------|
E|-3-------------------|

 tree from the
e|-------------|
B|-------3p1p0-|
G|-----0-------|
D|---2---------|
A|-3-----------|
E|-------------|

 path to our home
e|--------|
B|---0---0|
G|-2---1--|
D|--------|
A|-2---2--|
E|--------|

e|-----------0--|
B|-------0h1-1--|
G|-----2-----2--|
D|---2----------|
A|-0------------|
E|--------------|

e|---------0----|
B|-------3---3--|
G|-----2-------2|
D|---3----------|
A|-2------------|
E|--------------|

only the mayfly used to
e|-----0-3-3s5-3------|
B|----1--------3-3p1p0|
G|---2----------------|
D|--------------------|
A|-0------------------|
E|--------------------|

tell me so
e|---------0----|
B|-------3---3--|
G|-----2-------2|
D|---3----------|
A|-2------------|
E|--------------|

Now, here is august; drop your
e|---------0-3-0-------|
B|-------3-------3p0---|
G|-----0-------------0-|
D|---3-----------------|
A|---------------------|
E|-3-------------------|

 weight      just let
e|-------------|
B|-------3p1p0-|
G|-----0-------|
D|---2---------|
A|-3-----------|
E|-------------|

 go
e|--------|
B|---0---0|
G|-2---1--|
D|--------|
A|-2---2--|
E|--------|

Now midnight sunt takes turns with
e|-----0-3-3s5-3------|
B|----1--------3-3p1p0|
G|---2----------------|
D|--------------------|
A|-0------------------|
E|--------------------|

northernlights
e|---------0----|
B|-------3---3--|
G|-----2-------2|
D|---3----------|
A|-2------------|
E|--------------|

and wil i ever have to
e|---------0-3-0-------|
B|-------3-------3p0---|
G|-----0-------------0-|
D|---3-----------------|
A|---------------------|
E|-3-------------------|

 feel    what those
e|-------------|
B|-------3p1p0-|
G|-----0-------|
D|---2---------|
A|-3-----------|
E|-------------|

 blades were a       bout?
e|--------|
B|---0---0|
G|-2---1--|
D|--------|
A|-2---2--|
E|--------|

chorus:
(this is played much faster)

e|---------0-----------0--------|
B|---0h1---------0h1-------1----|
G|-------------2---------------2|
D|---3-------3-------3-------3--|
A|-0-----0-------0-------0------|
E|------------------------------|

e|-----------------0---------|
B|-------0-------------0-----|
G|---2-------2-1-----------1-|
D|---0-----0-----0-------0---|
A|-2---2-------2-----2-------|
E|---------------------------|

             and     in     that         sound    of        sighing
e|---------0-----------0--------|
B|---0h1---------0h1-------1----|
G|-------------2?--------------2|
D|---3-------3-------3-------3--|
A|-0-----0-------0-------0------|
E|------------------------------|

        that      empty             howl
e|-------------0------------|
B|-------1------------1-----|
G|---0-------0-----0------0-|
D|---2-----2-----2------2---|
A|-3-----------3------------|
E|-----3------------3-------|

     and all the everloving
e|-----------------0---------|
B|-------0-------------0-----|
G|---2-------2-1-----------1-|
D|---0-----0-----0-------0---|
A|-2---2-------2-----2-------|
E|---------------------------|

 bends in the line of your trials
e|---------0---------------------|
B|---0h1-----------1------1------|
G|--------------2-------0------0-|
D|---2-------2--------2------2---|
A|-0-----0---------3-------------|
E|------------------------3------|

 some ends forgotten and some
e|---------0-----------0--------|
B|---0h1---------0h1-------1----|
G|-------------2---------------2|
D|---3-------3-------3-------3--|
A|-0-----0-------0-------0------|
E|------------------------------|

 others believed
e|-------------0------------|
B|-------1------------1-----|
G|---0-------0-----0------0-|
D|---2-----2-----2------2---|
A|-3-----------3------------|
E|-----3------------3-------|

 hwatever happend to the
e|-----------------0---------|
B|-------0-------------0-----|
G|---2-------2-1-----------1-|
D|---0-----0-----0-------0---|
A|-2---2-------2-----2-------|
E|---------------------------|

 boy is now a tale for the seas
e|---------0---------------------|
B|---0h1-----------1------1------|
G|--------------2-------0------0-|
D|---2-------2--------2------2---|
A|-0-----0---------3-------------|
E|------------------------3------|

          when you
e|---------0-----------0--------|
B|---0h1---------0h1-------1----|
G|-------------2---------------2|
D|---3-------3-------3-------3--|
A|-0-----0-------0-------0------|
E|------------------------------|

 know youre alwready
e|--------------------------|
B|-------1-----0-------0----|
G|---0-------0-----0-------0|
D|---2-----2-----0-------0--|
A|-3---3--------------------|
E|-------------3-----3------|

 young                                   like the
e|---------0-----------0--------|
B|---0h1---------0h1-------1----|
G|-------------2---------------2|
D|---3-------3-------3-------3--|
A|-0-----0-------0-------0------|
E|------------------------------|

 grass wither to become
e|--------------------------|
B|-------1-----0-------0----|
G|---0-------0-----0-------0|
D|---2-----2-----0-------0--|
A|-3---3--------------------|
E|-------------3-----3------|

 again and
e|---------0-----------0--------|
B|---0h1---------0h1-------1----|
G|-------------2---------------2|
D|---3-------3-------3-------3--|
A|-0-----0-------0-------0------|
E|------------------------------|

 freee?
e|-----------------0---------|
B|-------0-------------0-----|
G|---2-------2-1-----------1-|
D|---0-----0-----0-------0---|
A|-2---2-------2-----2-------|
E|---------------------------|

         its all
e|-----------------0---------|
B|-------0-------------0-----|
G|---2-------2-1-----------1-|
D|---0-----0-----0-------0---|
A|-2---2-------2-----2-------|
E|---------------------------|

 we'll   ever be
e|---------0---------------------|
B|---0h1-----------1------1------|
G|--------------2-------0------0-|
D|---2-------2--------2------2---|
A|-0-----0---------3-------------|
E|------------------------3------|

                                 (humming)
e|------------0------------|
B|-------3------------3----|
G|---2------2-----2-------2|
D|---3-----3----3-------3--|
A|-2---2------2-----2------|
E|-------------------------|

 (Humming)
e|-------------3p0-------------|
B|-------3---------------3-----|
G|---0-------0-------0-------0-|
D|---3-----3-------3-------3---|
A|-----------------------------|
E|-3---3-------3-------3-------|

e|---------------|
B|---3p1---0-----|
G|-------------0-|
D|---2-------2---|
A|-3-----3-------|
E|---------------|

e|-----0--------|
B|---------0----|
G|-1-----------1|
D|---0-------0--|
A|-2-----2------|
E|--------------|

e|-----------------0---------|
B|-------0-------------0-----|
G|---2-------2-1-----------1-|
D|---0-----0-----0-------0---|
A|-2---2-------2-----2-------|
E|---------------------------|

 verse
 i dont remember where i
e|-------------3p0-------------|
B|-------1---------------1-----|
G|---2-------2-------2-------2-|
D|---2-----2-------2-------2---|
A|-0---0-------0-------0-------|
E|-----------------------------|

 learned to dive
e|------------0------------|
B|-------3------------3----|
G|---2------2-----2-------2|
D|---3-----3----3-------3--|
A|-2---2------2-----2------|
E|-------------------------|

 but i am humble for the
e|-------------3p0-------------|
B|-------3---------------3-----|
G|---0-------0-------0-------0-|
D|---3-----3-------3-------3---|
A|-----------------------------|
E|-3---3-------3-------3-------|

 rocks when i
e|---------------|
B|---3p1---0-----|
G|-------------0-|
D|---2-------2---|
A|-3-----3-------|
E|---------------|

 try
e|-----0--------|
B|---------0----|
G|-1-----------1|
D|---0-------0--|
A|-2-----2------|
E|--------------|

 and somehow I am lowered
e|---------0-----------0--------|
B|---0h1---------0h1-------1----|
G|-------------2---------------2|
D|---2-------2-------2-------2--|
A|-0-----0-------0-------0------|
E|------------------------------|

 into the waves
e|------------0------------|
B|-------3------------3----|
G|---2------2-----2-------2|
D|---3-----3----3-------3--|
A|-2---2------2-----2------|
E|-------------------------|

 and now with you I feel the
e|-------------3p0-------------|
B|-------3---------------3-----|
G|---0-------0-------0-------0-|
D|---3-----3-------3-------3---|
A|-----------------------------|
E|-3---3-------3-------3-------|

 sun and the
e|---------------|
B|---3p1---0-----|
G|-------------0-|
D|---2-------2---|
A|-3-----3-------|
E|---------------|

 salt on my
e|-----0--------|
B|---------0----|
G|-1-----------1|
D|---0-------0--|
A|-2-----2------|
E|--------------|

 face
e|-----------------0---------|
B|-------0-------------0-----|
G|---2-------2-1-----------1-|
D|---0-----0-----0-------0---|
A|-2---2-------2-----2-------|
E|---------------------------|

 chorus:
e|---------0-----------0--------|
B|---0h1---------0h1-------1----|
G|-------------2---------------2|
D|---3-------3-------3-------3--|
A|-0-----0-------0-------0------|
E|------------------------------|

e|-----------------0---------|
B|-------0-------------0-----|
G|---2-------2-1-----------1-|
D|---0-----0-----0-------0---|
A|-2---2-------2-----2-------|
E|---------------------------|

             and     in     that         sound    of        sighing
e|---------0-----------0--------|
B|---0h1---------0h1-------1----|
G|-------------2?--------------2|
D|---3-------3-------3-------3--|
A|-0-----0-------0-------0------|
E|------------------------------|

        that      empty             howl
e|-------------0------------|
B|-------1------------1-----|
G|---0-------0-----0------0-|
D|---2-----2-----2------2---|
A|-3-----------3------------|
E|-----3------------3-------|

     and all the everloving
e|-----------------0---------|
B|-------0-------------0-----|
G|---2-------2-1-----------1-|
D|---0-----0-----0-------0---|
A|-2---2-------2-----2-------|
E|---------------------------|

 bends in the line of your trials
e|---------0---------------------|
B|---0h1-----------1------1------|
G|--------------2-------0------0-|
D|---2-------2--------2------2---|
A|-0-----0---------3-------------|
E|------------------------3------|

 some ends forgotten and some
e|---------0-----------0--------|
B|---0h1---------0h1-------1----|
G|-------------2---------------2|
D|---3-------3-------3-------3--|
A|-0-----0-------0-------0------|
E|------------------------------|

 others believed
e|-------------0------------|
B|-------1------------1-----|
G|---0-------0-----0------0-|
D|---2-----2-----2------2---|
A|-3-----------3------------|
E|-----3------------3-------|

 hwatever happend to the
e|-----------------0---------|
B|-------0-------------0-----|
G|---2-------2-1-----------1-|
D|---0-----0-----0-------0---|
A|-2---2-------2-----2-------|
E|---------------------------|

 boy is now a tale for the seas
e|---------0---------------------|
B|---0h1-----------1------1------|
G|--------------2-------0------0-|
D|---2-------2--------2------2---|
A|-0-----0---------3-------------|
E|------------------------3------|

          when you
e|---------0-----------0--------|
B|---0h1---------0h1-------1----|
G|-------------2---------------2|
D|---3-------3-------3-------3--|
A|-0-----0-------0-------0------|
E|------------------------------|

 know youre alwready
e|--------------------------|
B|-------1-----0-------0----|
G|---0-------0-----0-------0|
D|---2-----2-----0-------0--|
A|-3---3--------------------|
E|-------------3-----3------|

 young                                   like the
e|---------0-----------0--------|
B|---0h1---------0h1-------1----|
G|-------------2---------------2|
D|---3-------3-------3-------3--|
A|-0-----0-------0-------0------|
E|------------------------------|

 grass wither to become
e|--------------------------|
B|-------1-----0-------0----|
G|---0-------0-----0-------0|
D|---2-----2-----0-------0--|
A|-3---3--------------------|
E|-------------3-----3------|

 again and
e|---------0-----------0--------|
B|---0h1---------0h1-------1----|
G|-------------2---------------2|
D|---3-------3-------3-------3--|
A|-0-----0-------0-------0------|
E|------------------------------|

 freee?
e|-----------------0---------|
B|-------0-------------0-----|
G|---2-------2-1-----------1-|
D|---0-----0-----0-------0---|
A|-2---2-------2-----2-------|
E|---------------------------|

         its all
e|-----------------0---------|
B|-------0-------------0-----|
G|---2-------2-1-----------1-|
D|---0-----0-----0-------0---|
A|-2---2-------2-----2-------|
E|---------------------------|

 we'll   ever be
e|---------0---------------------|
B|---0h1-----------1------1------|
G|--------------2-------0------0-|
D|---2-------2--------2------2---|
A|-0-----0---------3-------------|
E|------------------------3------|
                                                 ^


                                 (humming)
e|------------0------------|
B|-------3------------3----|
G|---2------2-----2-------2|
D|---3-----3----3-------3--|
A|-2---2------2-----2------|
E|-------------------------|

 (Humming)
e|-------------3p0-------------|
B|-------3---------------3-----|
G|---0-------0-------0-------0-|
D|---3-----3-------3-------3---|
A|-----------------------------|
E|-3---3-------3-------3-------|

e|---------------|
B|---3p1---0-----|
G|-------------0-|
D|---2-------2---|
A|-3-----3-------|
E|---------------|

e|-----0--------|
B|---------0----|
G|-1-----------1|
D|---0-------0--|
A|-2-----2------|
E|--------------|

e|-----------------0---------|
B|-------0-------------0-----|
G|---2-------2-1-----------1-|
D|---0-----0-----0-------0---|
A|-2---2-------2-----2-------|
E|---------------------------|

verse:
(slower, like the first verse)

the tired motion of the
e|-----0-3-3s5-3------|
B|----1--------3-3p1p0|
G|---2----------------|
D|--------------------|
A|-0------------------|
E|--------------------|

rusty bells
e|---------0----|
B|-------3---3--|
G|-----2-------2|
D|---3----------|
A|-2------------|
E|--------------|

just humming visitor I quit
e|---------0-3-0-------|
B|-------3-------3p0---|
G|-----0-------------0-|
D|---3-----------------|
A|---------------------|
E|-3-------------------|

 'n' go to
e|-------------|
B|-------3p1p0-|
G|-----0-------|
D|---2---------|
A|-3-----------|
E|-------------|

 hell
e|--------|
B|---0---0|
G|-2---1--|
D|--------|
A|-2---2--|
E|--------|

I?ve been the tower but now
e|-----0-3-3s5-3------|
B|----1--------3-3p1p0|
G|---2----------------|
D|--------------------|
A|-0------------------|
E|--------------------|

I walk alone
e|---------0----|
B|-------3---3--|
G|-----2-------2|
D|---3----------|
A|-2------------|
E|--------------|

there must be marks on  every
e|---------0-3-0-------|
B|-------3-------3p0---|
G|-----0-------------0-|
D|---3-----------------|
A|---------------------|
E|-3-------------------|

 page from the
e|-------------|
B|-------3p1p0-|
G|-----0-------|
D|---2---------|
A|-3-----------|
E|-------------|

 past to these           songs
e|--------|
B|---0---0|
G|-2---1--|
D|--------|
A|-2---2--|
E|--------|

chorus:

chorus:
(this is played much faster)

e|---------0-----------0--------|
B|---0h1---------0h1-------1----|
G|-------------2---------------2|
D|---3-------3-------3-------3--|
A|-0-----0-------0-------0------|
E|------------------------------|

e|-----------------0---------|
B|-------0-------------0-----|
G|---2-------2-1-----------1-|
D|---0-----0-----0-------0---|
A|-2---2-------2-----2-------|
E|---------------------------|

             and     in     that         sound    of        sighing
e|---------0-----------0--------|
B|---0h1---------0h1-------1----|
G|-------------2?--------------2|
D|---3-------3-------3-------3--|
A|-0-----0-------0-------0------|
E|------------------------------|

        that      empty             howl
e|-------------0------------|
B|-------1------------1-----|
G|---0-------0-----0------0-|
D|---2-----2-----2------2---|
A|-3-----------3------------|
E|-----3------------3-------|

     and all the everloving
e|-----------------0---------|
B|-------0-------------0-----|
G|---2-------2-1-----------1-|
D|---0-----0-----0-------0---|
A|-2---2-------2-----2-------|
E|---------------------------|

 bends in the line of your trials
e|---------0---------------------|
B|---0h1-----------1------1------|
G|--------------2-------0------0-|
D|---2-------2--------2------2---|
A|-0-----0---------3-------------|
E|------------------------3------|

 some ends forgotten and some
e|---------0-----------0--------|
B|---0h1---------0h1-------1----|
G|-------------2---------------2|
D|---3-------3-------3-------3--|
A|-0-----0-------0-------0------|
E|------------------------------|

 others believed
e|-------------0------------|
B|-------1------------1-----|
G|---0-------0-----0------0-|
D|---2-----2-----2------2---|
A|-3-----------3------------|
E|-----3------------3-------|

 hwatever happend to the
e|-----------------0---------|
B|-------0-------------0-----|
G|---2-------2-1-----------1-|
D|---0-----0-----0-------0---|
A|-2---2-------2-----2-------|
E|---------------------------|

 boy is now a tale for the seas
e|---------0---------------------|
B|---0h1-----------1------1------|
G|--------------2-------0------0-|
D|---2-------2--------2------2---|
A|-0-----0---------3-------------|
E|------------------------3------|

          when you
e|---------0-----------0--------|
B|---0h1---------0h1-------1----|
G|-------------2---------------2|
D|---3-------3-------3-------3--|
A|-0-----0-------0-------0------|
E|------------------------------|

 know youre alwready
e|--------------------------|
B|-------1-----0-------0----|
G|---0-------0-----0-------0|
D|---2-----2-----0-------0--|
A|-3---3--------------------|
E|-------------3-----3------|

 young                                   like the
e|---------0-----------0--------|
B|---0h1---------0h1-------1----|
G|-------------2---------------2|
D|---3-------3-------3-------3--|
A|-0-----0-------0-------0------|
E|------------------------------|

 grass wither to become
e|--------------------------|
B|-------1-----0-------0----|
G|---0-------0-----0-------0|
D|---2-----2-----0-------0--|
A|-3---3--------------------|
E|-------------3-----3------|

 again and
e|---------0-----------0--------|
B|---0h1---------0h1-------1----|
G|-------------2---------------2|
D|---3-------3-------3-------3--|
A|-0-----0-------0-------0------|
E|------------------------------|

 freee?
e|-----------------0---------|
B|-------0-------------0-----|
G|---2-------2-1-----------1-|
D|---0-----0-----0-------0---|
A|-2---2-------2-----2-------|
E|---------------------------|

         its all
e|-----------------0---------|
B|-------0-------------0-----|
G|---2-------2-1-----------1-|
D|---0-----0-----0-------0---|
A|-2---2-------2-----2-------|
E|---------------------------|

 we'll   ever be
e|-----3-------|
B|----1--------|
G|---2---------|(slowly strum)
D|--2----------|
A|-0-----------|
E|-------------|

************************************

| h  Hammer-on
| p  Hammer-on

************************************

            
            
Suggest correction
Creating personal tab
Creating personal tab
You can edit any tab online and save it as your Personal.

You can edit, replace or remove any tab part or add personal notes – all changes will be seen only by you.

Personal tabs can be accessed anytime from any device, even offline.
Learn more »
Give kudos to tab author, rate the tab!
1 2 3 4 5
comments
print report bad tab
guest
You may want to rate the tab now too:
select rating
Wanna post a correction for this tab? Suggest correction