Oops, an error
Loading. Please wait.

Over The Hills Tab

version 1
version 1

Whole song

13,606 views 45 this week
1 commentread comment
1 2 3 4 5
x 11
add to favorites
launch autoscroll
font size
0
reset
how to read this tab
guitar tuner
Autoscroll
slow
fast
+/-
esc
set tempo
stop
Help us to improve Ultimate-Guitar.com Take our survey!
×
Author
Difficulty
intermediate
(x4)   (x2)   (x2)   (x2)   (x2)   (x2)  (x1)   (x1)
e|------0------0------0------0------0------0------1------0-----|
B|------1------1------1------1------1------1------1------1-----|
G|------2------0------0------0------0------0------2------2-----|
D|------2------2------3------2------0------2------3------3-----|
A|------0------0------0------3------3------3------3------3-----|
E|-------------------------------------------------------------|

    'bound' 'new'  'hills'                            'blue'
      (x8)   (x8)   (x2)   (x2)   (x2)   (x1)   (x1)   (x8)
e|-----0------0------0------0------0------1------0------0------|
B|-----3------1------1------1------1------1------1------3------|
G|-----0------2------0------0------0------2------2------0------|
D|-----2------3------2------0------2------3------3------2------|
A|-----2------3------3------3------3------3------3------2------|
E|-----0------------------------------------------------0------|
      Em     F      C     C/D?    C      F      F      Em

(The song uses the same chord progression throughout. The only chord used in the song 
which I haven't noted down is a variation on an F chord at 2:33 which is something like)

e|---0-----|
B|---4-----|
G|---2-----|
D|---3-----|
A|---3-----|
E|---------|
Suggest correction
comments
print report bad tab
1 comment total.
0 reply
TJarnold92 93 Mar 13, 2012 03:08 AM

Nice job, great song!

I wish it was originally played in Open DADDEAD so I could play it in performances with his other songs, though... :/

guest
You may want to rate the tab now too:
select rating
Wanna post a correction for this tab? Suggest correction