Oops, an error
Loading. Please wait.

Rivers intro tab

version 1
version 1

Intro

Whole song

  • It's the full song (and correct).

Interactive

2,152 views 15 this week
no commentswrite comment
1 2 3 4 5
x 6
add to favorites
×
Save as Personal and add changes to this tab that will be seen only by you. Learn more ›
×
You can save this tab as Personal to edit and correct it or add notes. All changes will be seen only by you. Learn more »
launch autoscroll
font size
0
reset
how to read this tab
guitar tuner
edit
Autoscroll
slow
fast
+/-
esc
set tempo
stop
Author
Tabbed by: Pete Ward

Tuning: E,A,C#,F#,B,E

(based on this live version - https://www.youtube.com/watch?v=1u8cLovRx6w&spfreload=5)

I’ll try to get the full tab up as soon as I can but for now here is the intro. 

If you want to hear how it sounds when I play it and get a good view of the fingering this video should help  
https://www.youtube.com/watch?v=a2_SGdWVp5M

capo 8 (E,A,C#,F#,B,E tuning)

[Intro]

e |---------------------------|---------------------------|
B |---------2---------2-------|--------2--------2---------|
F#|----3----------3-----------|----3--------3-------------|
C#|---0---0---------0---------|------0--------0-----------|
A |--0------------------------|--0------------------------|
E |-------------4-------------|-----------0---------------| x2

e |---------------------------|---------------------------|
B |---------2---------2-------|-----2--0------------------|
F#|----3----------3-----------|----3---------3------------|
C#|---0---0---------0---------|---0--0---------0----------|
A |--0----------0-------------|--0---------0--------------|
E |---------------------------|---------------------------| 


e |---------------------------|---------------------------|
B |------0-----2h3---3--2-0---|-----2----2-—2--0----------|
F#|---2-----2--2--2-----------|---0----0----0-----3-------|
C#|----3-----3-----3----------|----0----0-----0------0----|
A |---------------------------|---------------------------|
E |--0-----0-----0-----0------|-2-----2----2-----2--------|


e |---------------------------|---------------------------|
B |-----3----5----3-----------|------------—------5-------|
F#|---3----3----3----3-3------|---2--3----5---------------|
C#|----5----5----5----5-------|--3-----3-----3-------3--3-|
A |--5----5----5----5---------|---------------------------|
E |---------------------------|-0--0--0--0--0--0----0--0--|

e |---------------------------|---------------------------|
B |---------2---------2-------|--------0--------0---------|
F#|----3----------3-----------|----0--------0-------------|
C#|-------0---------0---------|------1--------1-----------|
A |--0------------------------|--2------------------------|
E |-------------0-------------|-----------2---------------|
 

e |---------------------------|
B |------------—------5-------|
F#|---2--3----5---------------|
C#|--3-----3-----3-------3--3-|
A |---------------------------|
E |-0--0--0--0--0--0----0--0--|



************************************

| h  Hammer-on 

************************************
Suggest correction
Creating personal tab
Creating personal tab
You can edit any tab online and save it as your Personal.

You can edit, replace or remove any tab part or add personal notes – all changes will be seen only by you.

Personal tabs can be accessed anytime from any device, even offline.
Learn more »
comments
print report bad tab
guest
You may want to rate the tab now too:
select rating
Wanna post a correction for this tab? Suggest correction