Oops, an error
Loading. Please wait.

Rivers Tab

version 1
version 1

Whole song

  • It's the full song (and correct).

Interactive

952 views 114 this week
1 commentread comment
1 2 3 4 5
1 last vote to show rating
add to favorites
launch autoscroll
font size
0
reset
how to read this tab
guitar tuner
Autoscroll
slow
fast
+/-
esc
set tempo
stop
Help us to improve Ultimate-Guitar.com Take our survey!
×
Author
Difficulty
Capo
intermediate
6th fret
About this tab version
It's the full song (and correct). Was this info helpful? Yes No
For Daniel :)

Based on: https://www.youtube.com/watch?v=DZDFIvKEjCw

Tuning: E,A,C#,F#,B,e
(Capo 6 for the live version, capo 8 for the studio version)

Song structure: Intro, Verse, Verse, Chorus, Verse, Chorus, Bridge, Verse, Chorus, Bridge, Outro


[Intro]

e |--------------------------------------|
B |--------2-------2-------2-------2-----|
F#|----3-------3-------3-------3---------|
C#|------0-------0-------0-------0-------|
A |--0---------------0-------------------|
E |----------4---------------0-----------| x2

e |--------------------------------------|--------------------------------------|
B |--------2-----------2---0-------------|--------0-------2h3---------0---------|
F#|----3-------3---3-----------3---3-----|----2-------2-------2---2-------0-----|
C#|------0-------0-------0-------0-------|------3-------3-------3-------3-------|
A |--0-------0-------0-------0-----------|--------------------------------------|
E |--------------------------------------|--0-------0-------0-------0-----------|

e |--------------------------------------|--------------------------------------|
B |--------2-----------2---0-------------|--------3-------5-------3-------------|
F#|----0-------0---0-----------0---0-----|----3-------3-------3-------3---3-----|
C#|------0-------0-------0-------0-------|------5-------5-------5-------5-------|
A |--------------------------------------|--0-------0-------0-------0-----------|
E |--2-------2-------2-------2-----------|--------------------------------------|

e |--------------------------0-----------|--------------------------------------|
B |--------------------------------------|--------0---------------0-------------|
F#|----2--/-3---3--/-5---5-------5-------|----3-------3---0---0-------0---0-----|
C#|------3/5------5/7------7-------7-----|------0-------0-------1-------1-------|
A |--------------------------------------|--0-------0-------2-------2-----------|
E |--0--------0--------0-------0---------|--------------------------------------|

e |--------------------------0-----------|
B |--------------------------------------|
F#|----2--/-3---3--/-5---5-------5-------|
C#|------3/5------5/7------7-------7-----|
A |--------------------------------------|
E |--0--------0--------0-------0---------|


[Verse]

e |--------------------------------------|--------------------------------------|
B |--------2-------2-------2-------------|--------0-------2h3---------0---------|
F#|----3-------3-------3-------3---3-----|----2-------2-------2---2-------0-----|
C#|------0-------0-------0-------0-------|------3-------3-------3-------3-------|
A |--0-------0-------0-------0-----------|--------------------------------------|
E |--------------------------------------|--0-------0-------0-------0-----------|

e |--------------------------------------|--------------------------------------|
B |--------2-------2-------2-------------|--------3-------5-------3-------------|
F#|----0-------0-------0-------0---0-----|----3-------3-------3-------3---3-----|
C#|------0-------0-------0-------0-------|------5-------5-------5-------5-------|
A |--------------------------------------|--0-------0-------0-------0-----------|
E |--2-------2-------2-------2-----------|--------------------------------------|

e |--------------------------0-----------|--------------------------------------|
B |--------------------------------------|--------0---------------0-------------|
F#|----2--/-3---3--/-5---5-------5---5---|----3-------3---0---0-------0---0-----|
C#|------3/5------5/7------7-------7-----|------0-------0-------1-------1-------|
A |--------------------------------------|--0-------0-------2-------2-----------|
E |--0--------0--------0-------0---------|--------------------------------------|

e |--------------------------0-----------|
B |--------------------------------------|
F#|----2--/-3---3--/-5---5-------5---5---|
C#|------3/5------5/7------7-------7-----|
A |--------------------------------------|
E |--0--------0--------0-------0---------|


[Chorus]

e |--------------------------------------|--------------------0-----------------|
B |--------0-------0-------0-------0-----|--------0-----------------------0-----|
F#|----0-------0-------0-------0---------|----2-------2---0h2-----2---2---------|
C#|------1-------1-------1-------1-------|------3-------3-------3-------3-------|
A |--2-------2-------2-------2-----------|--------------------------------------|
E |--------------------------------------|--0-------0-------0-------0-----------|

e |--------------------------------------|--------------------------------------|
B |--------2-------2-------2-------------|--------2-----------2---0-------------|
F#|----3-------3-------3-------3---3-----|----0-------0---0-----------0---0-----|
C#|------0-------0-------0-------0-------|------0-------0-------0-------0-------|
A |--0-------0-------0-------0-----------|--------------------------------------|
E |--------------------------------------|--2-------2-------2-------2-----------|

e |--------------------------------------|--------------------------------------|
B |--------0-------0-------0-------0-----|--------0-------0-------0-------0-----|
F#|----0-------0-------0-------0---------|----2-------2-------2-------2---------|
C#|------1-------1-------1-------1-------|------3-------3-------3-------3-------|
A |--2-------2-------2-------2-----------|--------------------------------------|
E |--------------------------------------|--0-------0-------0-------0-----------|

e |--------------------------------------|--------------------------------------|
B |--------2-------2-------2-------------|--------2-----------2---2-------------|
F#|----3-------3-------3-------3---3-----|----0-------0---0-----------0---0-----|
C#|------0-------0-------0-------0-------|------0-------0-------0-------0-------|
A |--0-------0-------0-------0-----------|--------------------------------------|
E |--------------------------------------|--2-------2-------2-------2-----------|

e |--------------------------0-----------|--------------------------------------|
B |--------------------------------------|--------------------------------------|
F#|----2--/-3---3--/-5---5-------5---5---|--------------------------------------|
C#|------3/5------5/7------7-------7-----|--------------------------------------|
A |--------------------------------------|--5-----------------------------------|
E |--0--------0--------0-------0---------|--------------------------------------|

e |--------------------------------------|
B |--------2-------2-------2-------2-----|
F#|----3-------3-------3-------3---------|
C#|------0-------0-------0-------0-------|
A |--0---------------0-------------------|
E |----------4---------------0-----------| x2



[Bridge]

(very similar to chorus)

e |--------------------------------------|--------------------0-----------------|
B |--------0-------0-------0-------0-----|--------0-----------------------0-----|
F#|----0-------0-------0-------0---------|----2-------2---0h2-----2---2---------|
C#|------1-------1-------1-------1-------|------3-------3-------3-------3-------|
A |--2-------2-------2-------2-----------|--------------------------------------|
E |--------------------------------------|--0-------0-------0-------0-----------|

e |--------------------------------------|--------------------------------------|
B |--------2-------2-------2-------------|--------2-----------2---0-------------|
F#|----3-------3-------3-------3---3-----|----0-------0---0-----------0---0-----|
C#|------0-------0-------0-------0-------|------0-------0-------0-------0-------|
A |--0-------0-------0-------0-----------|--------------------------------------|
E |--------------------------------------|--2-------2-------2-------2-----------|

e |--------------------------------------|--------------------------------------|
B |--------0-------0-------0-------0-----|--------0-------0-------0-------0-----|
F#|----0-------0-------0-------0---------|----2-------2-------2-------2---------|
C#|------1-------1-------1-------1-------|------3-------3-------3-------3-------|
A |--2-------2-------2-------2-----------|--------------------------------------|
E |--------------------------------------|--0-------0-------0-------0-----------|

e |--------------------------------------|--------------------------------------|
B |--------2-------2-------2-------------|--------2-----------2---0-------------|
F#|----3-------3-------3-------3---3-----|----0-------0---0-----------0---0-----|
C#|------0-------0-------0-------0-------|------0-------0-------0-------0-------|
A |--0-------0-------0-------0-----------|--------------------------------------|
E |--------------------------------------|--2-------2-------2-------2-----------|

e |--------------------------------------|--------------------------0-----------|
B |--------0-------0-------0-------0-----|--------------------------------------|
F#|----0-------0-------0-------0---------|----2--/-3---3--/-5---5-------5---5---|
C#|------1-------1-------1-------1-------|------3/5------5/7------7-------7-----|
A |--2-------2-------2-------2-----------|--------------------------------------|
E |--------------------------------------|--0--------0--------0-------0---------|

On the second bridge, instead of the last bar play this:

e |--------------------------0-----------|--------------------------------------|
B |--------------------------------------|--------------------------------------|
F#|----2--/-3---3--/-5---5-------5---5---|--------------------------------------|
C#|------3/5------5/7------7-------7-----|--------------------------------------|
A |--------------------------------------|--5-----------------------------------|
E |--0--------0--------0-------0---------|--------------------------------------|


[Outro]

(He doesn't really fingerpick this part, watch the video to see how he does it)

e |------------0------5----------0-------|
B |---------2--------5---5------2--------|
F#|--------3--------3----------3---------|
C#|-------0-------------------0----------|
A |--0-----------------------------------|
E |--------------------------------------|


************************************

| h   Hammer-on
| /   Slide up
| \   Slide down

************************************
Suggest correction
Give kudos to tab author, rate the tab!
1 2 3 4 5
comments
print report bad tab
1 comment total.
0 reply
dcolsonvt 10 22 hours ago

This tab is totally perfect. Well done!

guest
You may want to rate the tab now too:
select rating
Wanna post a correction for this tab? Suggest correction