Oops, an error
Loading. Please wait.

Shallow Grave Tab

version 1
version 1

Whole song

Interactive

18,169 views 1 this week
2 commentsread comments
1 2 3 4 5
x 6
add to favorites
launch autoscroll
font size
0
reset
how to read this tab
guitar tuner
Autoscroll
slow
fast
+/-
esc
set tempo
stop
Help us to improve Ultimate-Guitar.com Take our survey!
×
Author
Capo
4th fret
This isnt the bango version played on the album, but the live version he
 plays on guitar, so youtube it if you havent heard it.

Im not going to write out the picking pattern, becuase its long and
 tedious, but its similar to others he does with some variations. Again,
 there are some great videos on youtube so you can see how he picks it.

Capo on the 4th fret or so.

Intro
D ---0----0----0---0----------------------------------|
A ---4b---0----0---0----------------------------------|
#F---0----0----0---1----------------------------------|
D ---0----2----2---0----------------------------------|
A ---0----4----3---2----------------------------------|
D ---0----x----x---x----------------------------------|

These four chords are repeated through the verses, and are
the bulk of the song. The ( 4b ) is a C# thats is bent slightly - youl
get it once you hear it.

The chorus then goes:

    Ooo when I dive into the waterrr . . . .
D ---0-------------0----------0---------|
A ---0-------------0----------4b--------|
F#---5-------------1----------0---------|
D ---0-------------2----------0---------|
A ---0-------------0----------0---------|
D ---5-------------0----------0---------|

  Ive raised the bottom to be saved, its just a shallow grave
D ---0------------------------0-------------------------------|
A ---0------------------------0-------------------------------|
F#---5------------------------1-------------------------------|
D ---0------------------------2-------------------------------|(intro chords)
A ---0------------------------0-------------------------------|
D ---5------------------------0-------------------------------|


Thats it, good luck!
Suggest correction
comments
print report bad tab
2 comments total.
0 reply
lima.31 10 Nov 05, 2014 01:44 PM

Great tab, not sure why this has just two stars! Probably because people don't want to try and figure out the pattern on their own. Chords are spot on, thanks man! (For those looking for help on the pattern, its played like Little Brother, or Sparrow and the Medicine, and several of his other tunes)

0 reply
Fabian073 10 Sep 13, 2015 01:02 AM

Agree with Lima.31, spot on! Been looking for a tab to play his live version. The fingerpicking is not too hard, except for the 3rd chord.. Have played the video at half speed now for about 40 minutes and I just can't get it right. Anybody who can help me out?

guest
You may want to rate the tab now too:
select rating
Wanna post a correction for this tab? Suggest correction