Oops, an error
Loading. Please wait.

Singers tab

388 views 21 this week
1 commentread comment
1 2 3 4 5
x 4
add to favorites
×
Save as Personal and add changes to this tab that will be seen only by you. Learn more ›
×
You can save this tab as Personal to edit and correct it or add notes. All changes will be seen only by you. Learn more »
launch autoscroll
font size
0
reset
how to read this tab
guitar tuner
edit
Autoscroll
slow
fast
+/-
esc
set tempo
stop
Artist: The Tallest Man on Earth
Album: Dark Bird is Home (2015)
Song: Singers
This tab is based on the great work by kfod at the impossibletrees forum 
(http://www.impossibletrees.com/forum/showthread.php?tid=15227)
Tuning: EBD#F#BF# (you can also tune it to DAC#EAE if you're afraid of tuning the 6th string to F#)
Capo: 4th fret (or 6th for the alternative tuning)

[Intro]x2
   1  &  2  &  3  &  4  &  | 1  &  2  &  3  &  4  &  | 1  &  2  &  3  &  4  &  | 1  &  2  &  3  &  4  &  |
e|-------------------------|-------------------------|---------0---------0-------------------0-----------|
B|-0---0-----0-----0-------|-----0-----0---------0---|-----------------------0-|---------0--------0------|
G|----0-----0-----0--------|----0-----0--------------|----0--------0h2------2--|----0-----0-----------0--|
D|---0-----0-----0---------|---8-----0------0------0-|----0-----0-----1--------|----1------1----0------1-|
A|-0-----------------2--4--|-5-----4-----------------|-0-----0-----------------|-------------------------|
E|-------6-----4-----------|-------------2-----2-----|-------------0-------0---|-2-----2-----2-----0-----|
                                                                                                Will you
                         
[Verse]
   1  &  2  &  3  &  4  &  | 1  &  2  &  3  &  4  &  | 1  &  2  &  3  &  4  &  | 1  &  2  &  3  &  4  &  |
e|-------------------------|-------------------------|---------0---------0-------------------0-----------|
B|-0---0-----0-----0-------|-----0-----0---------0---|-----------------------0-|---------0--------0------|
G|----0-----0-----0--------|----0-----0--------------|----0--------0h2------2--|----0-----0-----------0--|
D|---0-----0-----0---------|---8-----0------0------0-|----0-----0-----1--------|----1------1----0------1-|
A|-0-----------------2--4--|-5-----4-----------------|-0-----0-----------------|-------------------------|
E|-------6-----4-----------|-------------2-----2-----|-------------0-------0---|-2-----2-----2-----0-----|
 walk or slowly run sweet old man it's time  to disappear  but     still there is laughter         Out in the

   1  &  2  &  3  &  4  &  | 1  &  2  &  3  &  4  &  | 1  &  2  &  3  &  4  &  | 1  &  2  &  3  &  4  &  |
e|-------------------------|-------------------------|---------0---------0-------------------0-----------|
B|-0---0-----0-----0-------|-----0-----0---------0---|-----------------------0-|---------0--------0------|
G|----0-----0-----0--------|----0-----0--------------|----0--------0h2------2--|----0-----0-----------0--|
D|---0-----0-----0---------|---8-----0------0------0-|----0-----0-----1--------|----1------1----0------1-|
A|-0-----------------2--4--|-5-----4-----------------|-0-----0-----------------|-------------------------|
E|-------6-----4-----------|-------------2-----2-----|-------------0-------0---|-2-----2-----2-----0-----|
Shadows me and you  greying hair rain and blues guess  always      been someone after          guess we're
                                                  there's

[Chorus]
   1  &  2  &  3  &  4  &  | 1  &  2  &  3  &  4  &  | 1  &  2  &  3  &  4  &  | 1  &  2  &  3  &  4  &  |
e|----------0-------0------|-------------0-----------|---------0--------0------|---------0--------0------|
B|----------0---0---0---0--|--------0----0----0------|-------------0--------0--|---------------------0---|
G|----2--------2--------2--|----0---0------------0---|----0--------------------|----0h2------0h2---------|
D|----1-------1------------|----1-----------------1--|----0-----0-----0------0-|----1-----1-----1-----0--|
A|-2-----------------------|-------------------------|-0-----0-----0-----0-----|-------------------------|
E|-------------------------|-2-----------------------|-------------------------|-0-----0-----0-----0-----|
  Always in beginnings of our wildness to return I rise above and then i feel a little lighter  guess we're

   1  &  2  &  3  &  4  &  | 1  &  2  &  3  &  4  &  | 1  &  2  &  3  &  4  &  | 1  &  2  &  3  &  4  &  |
e|-------------0-----------|-------------0-----------|-------------------------|-------------------------|
B|---------0--------0------|---------0--------0------|--------0-----------0----|--------0-----------0----|
G|----2----------------2---|----0----------------2---|----0-----0------0----0--|-----0----0------0----0--|
D|----1-----1-----1-----1--|----1-----1-----1-----1--|----0-------0---0-------0|----0-------0---0-------0|
A|-2-----------2-----2-----|-------------------------|-0-----------------------|-------------------------|
E|-------------------------|-2-----------2-----2-----|-------------6-----------|-4-----------2-----------|
Always in the question of the things we never learn   only gone like singers are       let them out oh if
                                               but we're                     till springtime

   1  &  2  &  |
e|-------------|
B|-0---0-----0-|
G|-2--2-----0--|
D|---1-----1---|
A|-0-----------|
E|-------2-----|
they shall let them out

[Interlude]
   1  &  2  &  3  &  4  &  | 1  &  2  &  3  &  4  &  | 1  &  2  &  3  &  4  &  | 1  &  2  &  3  &  4  &  |
e|-------------------------|-------------------------|---------0---------0-------------------0-----------|
B|-0---0-----0-----0-------|-----0-----0---------0---|-----------------------0-|---------0--------0------|
G|----0-----0-----0--------|----0-----0--------------|----0--------0h2------2--|----0-----0-----------0--|
D|---0-----0-----0---------|---8-----0------0------0-|----0-----0-----1--------|----1------1----0------1-|
A|-0-----------------2--4--|-5-----4-----------------|-0-----0-----------------|-------------------------|
E|-------6-----4-----------|-------------2-----2-----|-------------0-------0---|-2-----2-----2-----0-----|
                                                                                               Some said

[Verse]
   1  &  2  &  3  &  4  &  | 1  &  2  &  3  &  4  &  | 1  &  2  &  3  &  4  &  | 1  &  2  &  3  &  4  &  |
e|-------------------------|-------------------------|---------0---------0-------------------0-----------|
B|-0---0-----0-----0-------|-----0-----0---------0---|-----------------------0-|---------0--------0------|
G|----0-----0-----0--------|----0-----0--------------|----0--------0h2------2--|----0-----0-----------0--|
D|---0-----0-----0---------|---8-----0------0------0-|----0-----0-----1--------|----1------1----0------1-|
A|-0-----------------2--4--|-5-----4-----------------|-0-----0-----------------|-------------------------|
E|-------6-----4-----------|-------------2-----2-----|-------------0-------0---|-2-----2-----2-----0-----|
the night is here so sleep but if they knew the way how a weather builds in the silene     It's where you try

   1  &  2  &  3  &  4  &  | 1  &  2  &  3  &  4  &  | 1  &  2  &  3  &  4  &  | 1  &  2  &  3  &  4  &  |
e|-------------------------|-------------------------|---------0---------0-------------------0-----------|
B|-0---0-----0-----0-------|-----0-----0---------0---|-----------------------0-|---------0--------0------|
G|----0-----0-----0--------|----0-----0--------------|----0--------0h2------2--|----0-----0-----------0--|
D|---0-----0-----0---------|---8-----0------0------0-|----0-----0-----1--------|----1------1----0------1-|
A|-0-----------------2--4--|-5-----4-----------------|-0-----0-----------------|-------------------------|
E|-------6-----4-----------|-------------2-----2-----|-------------0-------0---|-2-----2-----2-----0-----|
it's gonna land, it's where you land they will try  guess it all looks just like we're dancing    guess we're

[Chorus]
   1  &  2  &  3  &  4  &  | 1  &  2  &  3  &  4  &  | 1  &  2  &  3  &  4  &  | 1  &  2  &  3  &  4  &  |
e|----------0-------0------|-------------0-----------|---------0--------0------|---------0--------0------|
B|----------0---0---0---0--|--------0----0----0------|-------------0--------0--|---------------------0---|
G|----2--------2--------2--|----0---0------------0---|----0--------------------|----0h2------0h2---------|
D|----1-------1------------|----1-----------------1--|----0-----0-----0------0-|----1-----1-----1-----0--|
A|-2-----------------------|-------------------------|-0-----0-----0-----0-----|-------------------------|
E|-------------------------|-2-----------------------|-------------------------|-0-----0-----0-----0-----|
 Only in beginnings of our silene to return I rise above and then i feel a little lighter  guess we're

   1  &  2  &  3  &  4  &  | 1  &  2  &  3  &  4  &  | 1  &  2  &  3  &  4  &  | 1  &  2  &  3  &  4  &  |
e|-------------0-----------|-------------0-----------|--------------------0----|-------------------------|
B|---------0--------0------|---------0--------0------|--------0----0--------0--|-0------0----0------0----|
G|----2----------------2---|----0----------------2---|----0-----0-------0----0-|-----0----0------0----0--|
D|----1-----1-----1-----1--|----1-----1-----1-----1--|---0--------0----0-------|----0-------0---0-------0|
A|-2-----------2-----2-----|-------------------------|-0-----------------------|-------------------------|
E|-------------------------|-2-----------2-----2-----|-------------6-----------|-4-----------2-----------|
Always in destrution of the little things we'd learnt   only gone like singers are       let them out oh if
                                                 but we're                     till springtime

   1  &  2  &  |
e|-------------|
B|-0---0-----0-|
G|-2--2-----0--|
D|---1-----1---|
A|-0-----------|
E|-------2-----|
they should let them out

[Interlude]
   1  &  2  &  3  &  4  &  | 1  &  2  &  3  &  4  &  | 1  &  2  &  3  &  4  &  | 1  &  2  &  3  &  4  &  |
e|-------------------------|-------------------------|---------0---------0-------------------0-----------|
B|-0---0-----0-----0-------|-----0-----0---------0---|-----------------------0-|---------0--------0------|
G|----0-----0-----0--------|----0-----0--------------|----0--------0h2------2--|----0-----0-----------0--|
D|---0-----0-----0---------|---8-----0------0------0-|----0-----0-----1--------|----1------1----0------1-|
A|-0-----------------2--4--|-5-----4-----------------|-0-----0-----------------|-------------------------|
E|-------6-----4-----------|-------------2-----2-----|-------------0-------0---|-2-----2-----2-----0-----|
                                  No                                                         And in the 

[Bridge]
   1  &  2  &  3  &  4  &  | 1  &  2  &  3  &  4  &  | 1  &  2  &  3  &  4  &  | 1  &  2  &  3  &  4  &  |
e|-------------0-----------|-------------0-----------|-------------0-----------|---------0--------0------|
B|---------0--------0------|---------0--------0------|---------0--------0------|---------------------0---|
G|----2----------------2---|----0----------------2---|----0-----------------0--|----0h2------0h2---------|
D|----3-----3-----3-----3--|----3-----3-----3-----1--|----0-----0-----0------0-|----1-----1-----1-----0--|
A|-2-----2-----2-----2-----|-------------------------|-0-----0-----0-----0-----|-------------------------|
E|-------------------------|-2-----------2-----2-----|-------------------------|-0-----0-----0-----0-----|
 Morning we're all out to see whats down there oh    he cannot empty out this lake before I die

   1  &  2  &  3  &  4  &  | 1  &  2  &  3  &  4  &  | 1  &  2  &  3  &  4  &  | 1  &  2  &  3  &  4  &  |
e|-------------0-----------|-------------0-----------|--------------------0----|-------------------------|
B|---------0--------0------|---------0--------0------|-0------0----0--------0--|-0------0----0------0----|
G|----2----------------2---|----0----------------2---|----0-----0-------0----0-|-----0----0------0----0--|
D|----3-----3-----3-----3--|----3-----3-----3-----1--|---0-------------0-------|----0-------0---0-------0|
A|-2-----------2-----2-----|-------------------------|-0-----0-----------------|-------------------------|
E|-------------------------|-2-----------2-----2-----|-------------6-----------|-4-----4-----2-----2-----|
We let them back when it just felt like we were      only gone like singers are       let them out oh if
                                      stealing oh but we're                  till springtime

   1  &  2  &  |
e|-------------|
B|-0---0-----0-|
G|-2--2-----0--|
D|---1-----1---|
A|-0-----------|
E|-------2-----|
they should let them out

[Interlude]
   1  &  2  &  3  &  4  &  | 1  &  2  &  3  &  4  &  | 1  &  2  &  3  &  4  &  | 1  &  2  &  3  &  4  &  |
e|-------------------------|-------------------------|---------0---------0-------------------0-----------|
B|-0---0-----0-----0-------|-----0-----0---------0---|-----------------------0-|---------0--------0------|
G|----0-----0-----0--------|----0-----0--------------|----0--------0h2------2--|----0-----0-----------0--|
D|---0-----0-----0---------|---8-----0------0------0-|----0-----0-----1--------|----1------1----0------1-|
A|-0-----------------2--4--|-5-----4-----------------|-0-----0-----------------|-------------------------|
E|-------6-----4-----------|-------------2-----2-----|-------------0-------0---|-2-----2-----2-----0-----|
                                      No                                                  I'm going to

[Verse]
   1  &  2  &  3  &  4  &  | 1  &  2  &  3  &  4  &  | 1  &  2  &  3  &  4  &  | 1  &  2  &  3  &  4  &  |
e|-------------------------|-------------------------|---------0---------0-------------------0-----------|
B|-0-----------------------|---------------------0---|-----------------------0-|---------0--------0------|
G|-------------------------|-------------------------|----0--------0h2------2--|----0-----0-----------0--|
D|-------------------------|----------------0------0-|----0-----0-----1--------|----1------1----0------1-|
A|-0-----------------2--4--|-5-----4-----------------|-0-----0-----------------|-------------------------|
E|-------6-----4-----------|-------------2-----2-----|-------------0-------0---|-2-----2-----2-----0-----|
   Miss you now alright guess I'll walk it somehow  Travel on to feel what is out there          It's on the

   1  &  2  &  3  &  4  &  | 1  &  2  &  3  &  4  &  | 1  &  2  &  3  &  4  &  | 1  &  2  &  3  &  4  &  |
e|-------------------------|-------------------------|---------0---------0-------------------0-----------|
B|-0-----------------------|---------------------0---|-----------------------0-|---------0--------0------|
G|-------------------------|-------------------------|----0--------0h2------2--|----0-----0-----------0--|
D|-------------------------|----------------0------0-|----0-----0-----1--------|----1------1----0------1-|
A|-0-----------------2--4--|-5-----4-----------------|-0-----0-----------------|-------------------------|
E|-------6-----4-----------|-------------2-----2-----|-------------0-------0---|-2-----2-----2-----0-----|
 borders you will think just of all these goodbyes and the memories of being looked after     Guess we're

[Chorus]
   1  &  2  &  3  &  4  &  | 1  &  2  &  3  &  4  &  | 1  &  2  &  3  &  4  &  | 1  &  2  &  3  &  4  &  |
e|-------------0-----------|-------------0-----------|---------0--------0------|---------0--------0------|
B|---------0--------0------|---------0--------0------|-------------0--------0--|---------------------0---|
G|----2----------------2---|----0----------------2---|----0--------------------|----0h2------0h2---------|
D|----1-----1-----1-----1--|----1-----1-----1-----1--|----0-----0-----0------0-|----1-----1-----1-----0--|
A|-2-----2-----2-----2-----|-------------------------|-0-----0-----0-----0-----|-------------------------|
E|-------------------------|-2-----------2-----2-----|-------------------------|-0-----0-----0-----0-----|
 Only in beginnings of our wildness to return I rise into it and  I feel a little lighter      Guess we're

   1  &  2  &  3  &  4  &  | 1  &  2  &  3  &  4  &  | 1  &  2  &  3  &  4  &  | 1  &  2  &  3  &  4  &  |
e|-------------0-----------|-------------0-----------|--------------------0----|-------------------------|
B|---------0--------0------|---------0--------0------|-0------0----0--------0--|-0------0----0------0----|
G|----2----------------2---|----0----------------2---|----0-----0-------0----0-|-----0----0------0----0--|
D|----1-----1-----1-----1--|----1-----1-----1-----1--|---0--------0----0-------|----0-------0---0-------0|
A|-2-----------2-----2-----|-------------------------|-0-----------------------|-------------------------|
E|-------------------------|-2-----------2-----2-----|-------------6-----------|-4-----------2-----------|
Always in the faces of the things we'd never learn    only gone like singers are       let them out oh if
                                               but we're                  till springtime

   1  &  2  &  |
e|-------------|
B|-0---0-----0-|
G|-2--2-----0--|
D|---1-----1---|
A|-0-----------|
E|-------2-----|
they should let them out

[Outro]x2

   1  &  2  &  3  &  4  &  | 1  &  2  &  3  &  4  &  | 1  &  2  &  3  &  4  &  | 1  &  2  &  3  &  4  &  |
e|-------------------------|-------------------------|---------0---------0-------------------0-----------|
B|-0---0-----0-----0-------|-----0-----0---------0---|-----------------------0-|---------0--------0------|
G|----0-----0-----0--------|----0-----0--------------|----0--------0h2------2--|----0-----0-----------0--|
D|---0-----0-----0---------|---8-----0------0------0-|----0-----0-----1--------|----1------1----0------1-|
A|-0-----------------2--4--|-5-----4-----------------|-0-----0-----------------|-------------------------|
E|-------6-----4-----------|-------------2-----2-----|-------------0-------0---|-2-----2-----2-----0-----|


************************************

| h   Hammer-on

************************************

            
            
Suggest correction
Creating personal tab
Creating personal tab
You can edit any tab online and save it as your Personal.

You can edit, replace or remove any tab part or add personal notes – all changes will be seen only by you.

Personal tabs can be accessed anytime from any device, even offline.
Learn more »
comments
print report bad tab
1 comment total.
0 reply
pure Elite 80 Aug 29, 2017 08:51 AM

Great tab, thanks!

guest
You may want to rate the tab now too:
select rating
Wanna post a correction for this tab? Suggest correction