Oops, an error
Loading. Please wait.

Steal Tomorrow Tab

version 1
version 1

Whole song

Interactive

5,336 views 30 this week
1 commentread comment
1 2 3 4 5
accurate
x 4
add to favorites
launch autoscroll
font size
0
reset
how to read this tab
guitar tuner
Autoscroll
slow
fast
+/-
esc
set tempo
stop
Help us to improve Ultimate-Guitar.com Take our survey!
×
Author
Difficulty
Tuning
intermediate
C F A# D# G C
THE TALLEST MAN ON EARTH - STEAL TOMORROW

Song: Steal Tomorrow
Artist: The Tallest Man On Earth
Album: The Tallest Man On Earth [2006 EP]

Tab by eirikhv

----------------------------------------------------------------

There was no tab on this song, so I made mine after watching some live performances on youtube.
This tab is pretty close to the EP version, I think...


TUNING: C-G-C-G-B-e (same as 'King of Spain' and 'Weather of a Killing Kind')
CAPO: 7th fret

NOTE:
I have marked most of the chords with stars (***), but they are (of course) finger 
pickings as well.
Just listen to the song, and you'll figure it out. :)

----------------------------------------------------------------



MAIN RIFF ['MR']

e|--------------1p0--------------------0-------|
C|----------0--------0-------------0--------0--|
G|----0h2p0-----------0------0h2p0---------0---|
C|-----------0---------0------------0-----0--0-|
G|--------------0----------------------0-------|
C|--0----------------------0-------------------|


MAIN RIFF variation ['MRv']

e|--------------3p0--------------------0-------|
C|----------0--------0-------------0--------0--|
G|----0h2p0-----------0------0h2p0---------0---|
C|-----------0---------0------------0-----0--0-|
G|--------------0----------------------0-------|
C|--0----------------------0-------------------|



----------------------------------------------------------------



PART 1 ['P-1']

e|------------------------1p0---------*3*--|
C|--------------------0--------0------*4*--|
G|--------------0h2p0-----------0-----*3*--|
C|---------------------0---------0----*0*--|
G|------------------------0-----------*0*--|
C|------------0----------------------------|
Well, I give you               all my rain


e|----------*1*----------------------*0*------------------|
C|----------*0*----------------------*0*------------------|
G|----------*2*----------------------*1*------------------|
C|----------*0*----------------------*0*------------------|
G|----------*2*----------------------*1*------------------|
C|--------------------------------------------------------|
I give you all my sweet horizons in another sense of lame


e|-----------------------1p0----------*0*--------------------|
C|-------------------0--------0-------*2*--------------------|
G|-------------0h2p0-----------0------*0*--------------------|
C|--------------------0---------0-----*2*--------------------|
G|-----------------------0------------*0*-------------['MR']-|
C|-----------0-----------------------------------------------|
I'll have to say,         it's just a way to steal tomorrow


----------------------------------------------------------------



PART 2 ['P-2']

e|-----*1*------------------------*0*-------|
C|-----*0*------------------------*2*-------|
G|-----*2*------------------------*0*-------|
C|-----*0*------------------------*2*-------|
G|--------------------------------*0*-------|
C|-----*2*----------------------------------|
I will dance and sway, while you dream away

e|---------*1*---------------------*0*-----------|
C|---------*0*---------------------*2*-----------|
G|---------*2*---------------------*0*-----------|
C|---------*0*---------------------*2*-----------|
G|---------------------------------*0*-----------|
C|---------*2*-----------------------------------|
Bring your curtain down, then I'll burn this town


                                                     ['MR'] / ['Bridge']
It's just a way to steal tomorrow


----------------------------------------------------------------



BRIDGE/SOLO ['Bridge']
                                     (3p0 <- second time)
e|---*0*---------0--------------------1p0--------------------------------|
C|---*0*-----*5*------------------0--------0---------2/4----4-\2-2p0-----|
G|---*2*-----*0*------------0h2p0-----------0--------0---0--0----0-------|  [x3]
C|---*0*-----*5*-------------------0---------0-------2/4--4--4\2-2p0-----|
G|-----------*0*----------0-----------0-------------0-------0------------|
C|---*0*-----------------------------------------------------------------|


e|---*0*---------0-------------------|
C|---*0*-----*5*---------*2*---*5*---|
G|---*2*-----*0*---------*0*---*0*---|
C|---*0*-----*5*---------*2*---*5*---|
G|-----------*0*---------*0*---*0*---|
C|---*0*-----------------------------|



----------------------------------------------------------------



ENDING ['Ending']

e|-----------------------1p0--------1------------------------0---1---2---6--|
C|-------------------0--------0-----2------------------------0---1---3---7--|
G|-------------0h2p0-----------0----0------------------------0---0---0---0--|
C|--------------------0---------0---2------------------------0---0---0---0--|
G|-----------------------0----------0------------------------0--------------|
C|-----------0-----------------------------------------------0--------------|
I'll have to say,      it's just a waaaay    to steal tomorrow


----------------------------------------------------------------




LYRICS:


['MR']+['MRv']

['P-1']
Well, I give you all my rain
I give you all my sweet horizons
in another sense of lame
I'll have to say, it's just a way
to steal tomorrow

['P-1']
Hell, I'm guilty of the crime
But like a bird above the Alcatraz
I'm whiter than your gown
I'll have to say, it's just a way
to steal tomorrow

['P-2']
I will dance and sway
while you dream away
Bring your curtain down
then I'll burn this town     ['MR']
It's just a way to steal tomorrow

['MRv']

['P-1']
Well, I'll tell you that I'm down
And I will even buy the tickets
Your Messiah is in town
I'll have to say, it's just a way
to steal tomorrow

['P-1']
While we're riding on our plane
Well, I have bought a special backpack
just to run away from shame
I'll have to say, it's just a way
to steal tomorrow

['P-2']
I will dance and sway
while you dream away
Bring your curtain down
then I'll burn this town     ['Bridge']
It's just a way to steal tomorrow

['P-1']
Hell, I'm guilty of the crime
But like a bird above the Alcatraz
I'm whiter than your gown
I'll have to say, it's just a way
to steal tomorrow ['Ending']
Suggest correction
What's this?
You can suggest a correction to this tab. Community and Mods will review your correction and vote to approve or reject it.
comments
print report bad tab
1 comment total.
0 reply
framazzi 332 wrote on July 9 2015, 08:28 am

The tab is essentially correct but there are few mistakes

-first you mean tuning CGCGCe but you wrote CGCGBe

-in MAIN RIFF ['MR'] try this (and also in MAIN RIFF variation ['MRv'])

e|--------------1p0----------------------0----------|
C|----------0--------0---------------0-------0------|
G|----0h2p0-------------0------0h2p0------------0---|
C|----0------0------0----0-----0-------0----0-----0-|
G|--------------------------------------------------|
C|--0-----------0-----0------0-----------0-----0----|

- this chord sounds bad, try change with this:

NO OK
|--*3*--| |--*3*--|
|--*4*--| |--*0*--|
|--*3*--| |--*3*--|
|--*0*--| |--*0*--|
|--*0*--| |--*3*--|
|-------| |-------|

-explain the picking pattern

for every chord

|--*x*--| |-------------x--------------|
|--*x*--| |---------x-------x----------|
|--*x*--| means |----x----------------x------|
|--*x*--| |----x------x---x-------x----|
|--*x*--| |--x----x-----x-----x-----x--|
|-------| |----------------------------|

just for the chord before "to steal tomorrow"

|--*0*--| |-------------0--------------|
|--*2*--| |----2----2-------2----------|
|--*0*--| means |---------------------0------|
|--*2*--| |----2------2---2-------0----|
|--*0*--| |--0----0-----0-----0-----0--|
|-------| |----------------------------|

guest
You may want to rate the tab now too:
select rating
Please do not post tabs as comments. Select "correction" instead!