Oops, an error
Loading. Please wait.

Stepstone tab

version 1
version 1

Whole song

Interactive

547 views 15 this week
1 commentread comment
1 2 3 4 5
1 last vote to show rating
add to favorites
×
Save as Personal and add changes to this tab that will be seen only by you. Learn more ›
×
You can save this tab as Personal to edit and correct it or add notes. All changes will be seen only by you. Learn more »
launch autoscroll
font size
0
reset
how to read this tab
guitar tuner
edit
Autoscroll
slow
fast
+/-
esc
set tempo
stop

-------------------------------------------------------------------------------
                    STEPSTONE - The Tallest Man On Eart
-------------------------------------------------------------------------------

Hi, i tabbed this song from a youtube video with TMOE performing it on the street:
https://www.youtube.com/watch?v=55h0zfQ81O4
Tabbed by framazzi

Tuning: CGCFCe
No Capo



  Timing
   
 | W                               |  W = Whole note
 | H               H               |  H = Half note
 | Q       Q       Q       Q       |  Q = Quarter note
 | E   E   E   E   E   E   E   E   |  E = Eightht note
 | S S S S S S S S S S S S S S S S |  S = Sixteenth note
 | TTTTTTTTTTTTTTTTTTTTTTTTTTTTTTTT|  T = Thirtytwoth note
   

                                   
Intro
Verse + Chorus + Bridge
Verse + Chorus + Bridge*
Verse + Chorus + Ending                                
                         
      
                                   
Intro                              
   E   E   S S E   E   S S S S S S   E   E   S E   S E   S S S S E           
e|-----------------0---------------|-----------------0---------------|
C|-----------0-----------0---------|-----------0-----------0---------|
F|-----2---------------------2-----|----/4---------------------4-----|
C|-----4-------4-------4-------4/5-|-----5---------5---5---------5---|
G|---------------------------------|---------------------------------|
C|-0-------0-------0-------0-------|-0-------0-------0-------0-------|
  [3]   
e|-------0---------0---------------|-----------------0---------------|
C|---0---------0---------0---------|-----------0-----------0---------|
F|--6------------------------6-----|----/4---------------------4-----|
C|-7---7-----7---------7-------7/5-|-----5-------5-------5-------5---|
G|---------------------------------|---------------------------------|
C|0------0---------0-------0-------|-0-------0-------0-------0-------|

e|-----------0---------0-----------|---------------------------------|
C|-----5-----------5-------0-------|-----------0-----------0---------|
F|-----4---------4-4-----------4/2-|-----2----------/4---------4-----|
C|---------------------------------|-----4-------4------/5-------5---|
G|---------------------------------|---------------------------------|
C|-5-------5-------0---------------|-0-------0-------0-------0-------|
  [3]                   [3]                  
e|--------0------------------------|-----------------0---------------|
C|----2---------2---2------2/5-0---|-----------0-----------0---------|
F|--/1--------1-----1-----1-/4-----|----/2---------------------2-----|
C|--0---0----------------2--/5-----|-----4-------4-------4-------4---|
G|------------------0---0----------|---------------------------------|
C|-2------2------------------------|-0-------0-------0-------0-------|

Verse
   E   E   S S S   E   E S S S E     E   E   E S S S   E   S S S S E   E   E S S S E   
e|-----------------0---------------|-----------------|-----------------0---------------|
C|-----------0-----------0---------|-----------0-----|-----------0-----------0---------|
F|-----2---------------------2-----|----/4-----------|------/2-------------------2-----|
C|-----4-------4-------4-------4---|----/5-------5/4-|-----4-------4-------4-------4---|
G|---------------------------------|-----------------|---------------------------------|
C|-0-------0-------0-------0-------|-0-------0-------|-0-------0-------0-------0-------|
                                                [3]
e|---------------------------------|---------------------------------|
C|-----------0-----2-----2---------|-----2---------2/5---0-------0---|
F|-----2----------/1---------1-----|-----1--------1-/4---------------|
C|-----4-------4-------0-------0---|-----2-------2--/5---------------|
G|---------------------------------|-0----------0--------------------|
C|-0-------0-------2-------2-------|-------------------------5-------|

e|-----------------0---------------|-----------------0---------------|
C|-----------0-----------0---------|-----------0-----------0---------|
F|----/2---------------------2-----|----/4-------4-------------4-----|
C|-----4-------4-------4-------4/5-|-----5---------5-----5-------5---|
G|---------------------------------|---------------------------------|
C|-0-------0-------0-------0-------|-0-------0-------0-------0-------|

e|-----------0---------0-----------|---------------------------------|
C|-----5-----------5-------0-------|-----------0-----2---------2-----|
F|-----4---------4-4-----------4/2-|-----2-----------1---------1-----|
C|---------------------------------|-----4-------4-------0-------0---|
G|---------------------------------|-------------------------0-------|
C|-5-------5-------0---------------|-0-------0-------2---------------|

e|-----------------0---------------|
C|-----------0-----------0---------|
F|-----2---------------------2-----|
C|-----4-------4-------4-------4---|
G|---------------------------------|
C|-0-------0-------0-------0-------|

Chorus
   E   E   S S S S E   S E+S   E     E   E   E S S   E   E S S S E 
e|-----------0-----------0---------|-----------------0---------------|
C|-----2-----------0-----------0---|-----------0-----------0---------|
F|-----1-------0---0---------------|-----2---------------------2-----|
C|-----2---------0-----0-----------|-----4-------4-------4-------4---|
G|-----------------2---------------|---------------------------------|
C|-2-------2-----------------------|-0-------0-------0-------0-------|

e|---------------------------------|-----------0-----------0---------|
C|-----2-----------2-----2---------|-----2-----------2---------2-----|
F|-----1-----1-----1---------1-----|-----1-------1---1-----------0---|
C|-------------0-------0-------0---|---------------------2-----------|
G|---------------------------------|-0-------0-------0-------0-------|
C|-2-------2-------2-------2-------|---------------------------------|
              [3]
e|---------------------------------|-----------------0---------------|
C|-----2---------2/5---0-------0---|-----------0-----------0---------|
F|-----1--------1-/4---------------|-----2---------------------2-----|
C|-----2-------2--/5---------------|-----4-------4-------4-------4/5-|
G|-0----------0--------------------|---------------------------------|
C|-------------------------5-------|-0-------0-------0-------0-------|

e|-----------------0---------------|-----------0---------0-----------|
C|-----------0-----------0---------|-----5-----------5-------0-------|
F|-----4-------4-------------4-----|-----4---------4-4-----------4/2-|
C|-----5---------5-----5-------5---|---------------------------------|
G|---------------------------------|---------------------------------|
C|-0-------0-------0-------0-------|-5-------4-------0---------------|

e|---------------------------------|
C|-----------0-----2-------2-------|
F|-----2-----------1-------1-------|
C|-----4-------4-------0-------0---|
G|-------------------------0-------|
C|-0-------0-------2---------------|

Bridge
   E   E   E S   E S   E S S S E     E   E   E S   E S   E   E   E
e|-----------------0---------------|-----------0---------0-----------|
C|-----------0-----------0---------|-----5-----------5-------0-------|
F|-----2---------------------2-----|-----4---------4-4-----------4/2-|
C|-----4---------4-----4-------0---|---------------------------------|
G|---------------------------------|---------------------------------|
C|-0-------0-------0-------0-------|-5-------4-------0---------------|

e|---------------------------------|--------0------------------------|
C|-----------0-----------0---------|----2-------------2------2/5-0---|
F|-----2-----------4---------4-----|--/1----------1---1-----1-/4-----|
C|-----4-------4-------5-------5---|--0---0-----0----------2--/5-----|
G|---------------------------------|------------------0---0----------|
C|-0-------0-------0-------0-------|-2------2------------------------|

e|-----------------0---------------|
C|-----------0-----------0---------|
F|-----2---------------------2-----|
C|-----4-------4-------4-------4---|
G|---------------------------------|
C|-0-------0-------0-------0-------|

Bridge*
                                      E   E   S S S S E   S S S S E           
e|                                 |-----------------0---------------|
C|          Do the Bridge          |-----------0-----------0---------|
F|        and continue with        |----/4-------4-------------4-----|
C|          these 3 bars           |-----5---------5---5---------5---|
G|                                 |---------------------------------|
C|                                 |-0-------0-------0-------0-------|
  [3]   
e|-------0---------0---------------|-----------------0---------------|
C|---0---------0---------0---------|-----------0-----------0---------|
F|--6------------------------6-----|----/4---------------------4-----|
C|-7---7-----7---------7-------7/5-|-----5-------5-------5-------5---|
G|---------------------------------|---------------------------------|
C|0------0---------0-------0-------|-0-------0-------0-------0-------|

Ending (Strumming)
   E   E   E   E   E   E   E   E     W
e|---------------------------------|---------------------------------|
C|-0---0---0---0---0---0---0---0---|-0-------------------------------|
F|-2---2---2---0---0---0---0---0---|-2-------------------------------|
C|-4---4---4---2---2---2---2---0---|-0-------------------------------|
G|-0---0---0---0---0---0---0---0---|-0-------------------------------|
C|-0---0---0---0---0---0---0---0---|-0-------------------------------|





Lyrics

It it sad to be parted from those that we love,
Strange faces we see every day,
Each heart string of mine is broken inside,
When I think of those dear ones and home.

Goodbye dear old stepstone, goodbye to my home,
God bless those I leave with a sigh;
I'll cherish fond memories when I'm far away,
To roam o'er this wide world alone.

And so I stood on my doorstep one evening and mourned,
And the wind whispered by with a howl;
Fields may be whitening, but I will be gone,
To roam o'er this wide world alone.

Goodbye dear old stepstone, goodbye to my home,
God bless those I leave with a sigh, Oh!
I cherish fond memories when I'm far away,
To roam o'er this wide world alone.

And so I stood by my school when that school time was over,
And I wished for the time to go by,
And now it has passed and I stand here tonight,
To bid this old stepstone goodbye.

Goodbye dear old stepstone, goodbye to my home,
God bless those I leave with a sigh, Oh!
And I will cherish fond memories when I'm far away,
To roam o'er this wide world alone.


************************************

            
            
Suggest correction
Creating personal tab
Creating personal tab
You can edit any tab online and save it as your Personal.

You can edit, replace or remove any tab part or add personal notes – all changes will be seen only by you.

Personal tabs can be accessed anytime from any device, even offline.
Learn more »
Give kudos to tab author, rate the tab!
1 2 3 4 5
comments
print report bad tab
1 comment total.
+1 reply
wechoserejoice 10 Nov 27, 2016 02:34 PM

thank you!

guest
You may want to rate the tab now too:
select rating
Wanna post a correction for this tab? Suggest correction