Oops, an error
Loading. Please wait.

Tangled In This Trampled Wheat Tab

1,368 views 1 this week
1 commentread comment
1 2 3 4 5
please rate
add to favorites
launch autoscroll
font size
0
reset
how to read this tab
guitar tuner
Tab Pro tools
  • play this tab
  • loop segment
  • change instrument
  • show fretboard
  • metronome
×
Best way to learn
"Tangled In This Trampled Wheat"
Autoscroll
slow
fast
+/-
esc
set tempo
stop
Contributor
Difficulty
intermediate
First tab, so be gentle.
I think it is mostly right, not 100% for sure though.

d----------------0-------|  
b-------0---0h1-------0--|
g----0-------------0-----|  x2
D----0----0-----2----2---|
A-----------3-----3------|
E--3---3-----------------|


d--------0----------------------------------|
b-----0---------0-------1p0------1p0----0---|
g--2---------2------2-------2---------2---2-|
D----0-----0------0-------------------------|
A-------------------------------------------|
E-2-----2------2------2--------2------------|


d-----------2p0----------------0---------------|
b-------1---------1---------0---------0--------|
g---2---------------2---2---------2--------2---|  x2
D---2-----2---------------0------0------0------|
A-0---0---------0------------------------------|
E---------------------2-----2-------2----------|

the last line there needs a little work...
should have the whole thing up soon.
comments
We did not receive enough feedback on this tab! Please rate:
print report bad tab
1 2 3 4 5
1 comment total.
0 reply
Gman1317 wrote on October 11 2011, 10:29 pm


d-----------2p0----------------------0---------------|
b-------1-------------1-----------0---------0--------|
g---2-------------2-------2---2---------2--------2---| x2
D---2-----2-----2-------2-------0------0------0------|
A-0---0-----0-------0--------------------------------|
E---------------------------2-----2-------2----------|


That should be correct now

I want to post or [tab]
guest
You may want to rate the tab now too:
select rating
Please do not post tabs as comments. Select "correction" instead!