Oops, an error
Loading. Please wait.

The Drying Of The Lawns Tab

version 1
version 1

Whole song

Interactive

17,565 views 18 this week
no commentswrite comment
1 2 3 4 5
accurate
x 2
add to favorites
launch autoscroll
font size
0
reset
how to read this tab
guitar tuner
Tab Pro tools
  • play this tab
  • loop segment
  • change instrument
  • show fretboard
  • metronome
Autoscroll
slow
fast
+/-
esc
set tempo
stop
Contributor
THE TALLEST MAN ON EARTH
THE WILD HUNT
THE DRYING OF THE LAWNS
------------------------
Tabbed by leechiahan
------------------------
Standard tuning, capo on 6th fret

You'll definitely want to listen to the song while you learn 
this; it will make a lot more sense. Also I did this by ear, 
so I have no idea if it's how Kristian plays it. It does 
sound pretty accurate though.
------------------------------------------------------------


INTRO/VERSE:

     based on the open C chord
e|------------------------------------0--------------------|
B|---------------1--------3--------------------------------|
G|---------0-----------0--------0--------------------------|
D|---------2--------2--------2-----------2-----------------|
A|---3--------------------3--------------------------------|
E|------------3--------------------3-----------------------|


e|------1--0------1--0------1--0---------------------------|
B|-----1-------1---------1---------------------------------|
G|----1----------------------------------------------------|
D|---0-----------------------------------------------------|
A|---------------------------------------------------------|
E|---------------------------------------------------------|

     Ami            Ami+F root      
e|---0--------------------------0--------------------------|
B|---1------1--------------------------1---1---------------|
G|-------------2-----------------------0---0---------------|
D|-------2--------2-----0h2---------2----------------------|
A|---0-----------------------------------------------------|
E|------------------1--------1---------3---3---------------|

     C
e|---------------------------------------------------------|
B|---1------------1--------1------------1------------------|
G|----------0-----------0---------0-----------0------------|
D|-------2-----------2---------2-----------2---------------|
A|---3---------------------3-------------------------------|
E|-------------3---------------------3---------------------|

And during the verses you can dumb down the playing a bit- just play the 
basic chords using the fingerpicking pattern above without all the fancy 
stuff. (Listen to the song to hear what I mean)


CHORUS:

Using the same fingerpicking pattern as the pattern above; play these chords:

Emi   F   C   C maj9  Ami  Ami+F root

  
Cmaj9:                 Ami+F root
e|-----------|         e|-----------|
B|-----1-----|         B|-----1-----|
G|-----0-----|         G|-----2-----|
D|-----0-----|         D|-----2-----|
A|-----2-----|         A|-----0-----|   you can wrap your thumb
E|-----------|         E|-----1-----| < around the bottom for this one



CHANGEUP:
Strum these and let them ring:

"Well I will stand down in the hallway with no thought to leave the set"
e|----------------------------------------------------------------------|
B|-----------1---------------------------------1--------------------3---|
G|-----------0---------------------------------0--------------------2---|
D|-----------2---------------------------------2--------------------3---|
A|-----------3---------------------------------0--------------------0---|
E|----------------------------------------------------------------------|
comments
We did not receive enough feedback on this tab! Please rate:
print report bad tab
1 2 3 4 5
I want to post or [tab]
guest
You may want to rate the tab now too:
select rating
Please do not post tabs as comments. Select "correction" instead!