Oops, an error
Loading. Please wait.

The Gardener Tab

version 1
version 1

Whole song

61,758 views 33 this week
no commentswrite comment
1 2 3 4 5
accurate
x 3
add to favorites
launch autoscroll
font size
0
reset
how to read this tab
guitar tuner
Autoscroll
slow
fast
+/-
esc
set tempo
stop
Help us to improve Ultimate-Guitar.com Take our survey!
×
Author
The song is in open D tuning. Im not sure about some of the chords, and I
havent worked out the whole song yet, but I thought Id put up what I got.

Intro
D -------------------------------------------------------------------|
A -------------------------------------------------------------------|
F#-------------------------------------------------------------------|
D -------------------------------------------------------------------|
A -2--2-2--2--2--2--2---0-0-(repeat once)----------------------------|
D -0--0-0--0--0--0--0---0-0------------------------------------------|

 then ...
D --0-0--0--0---0-0---0------------------|
A --0-0--0--0---0-0---0------------------|
F#--0-0--0--0---1-1---1------------------|
D --0-0--0--0---2-2---2---(repeat)-------|
A --0-0--0--0---0-0---0------------------|
D --0-0--0--0---0-0---0------------------|

then the verse....
D --0-0--0--0---0-0--0---0--0--0--0--0--0--------|
A --0-0--0--0---0-0--0---0--0--0--0--0--0--------|
F#--0-0--0--0---0-0--0---0--0--0--0--0--0--------|
D --0-0--0--0---2-2--2---0--0--0--0--0--0--------|
A --0-0--0--0---0-0--0---2--2--2--2--2--2--------|
D --0-0--0--0---0-0--0---0--0--0--0--0--0--------|

D ---0--0--0---0---0--0---0--0----0--0--------|
A ---0--0--0---0---0--0---0--0----4--4--------|
F#---0--0--0---0---1--1---1--1----1--1--------|
D ---4--4--4---4---2--2---2--2----2--2--------|   (repeat as necesary)
A ---0--0--0---0---0--0---0--0----0--0--------|
D ---5--5--5---5---0--0---0--0----0--0--------|

chorus ...
D --0--0---0--0---0---0----2-2/---4-4--0-------|
A --0--0---0--0---0---0----0-0----0-0--0-------|
F#--0--0---1--1---0---0----0-0----0-0--0-------|
D --0--0---2--2---0---0----0-0----0-0--0-------|
A --2--2---0--0---0---0----0-0----0-0--0-------|
D --5--5---0--0---0---0----0-0----0-0--0-------|

D --0--0---0---0---0--0----4-4/--7-7--0--------|
A --0--0---0---0---0--0----0-0---0-0--0--------|
F#--0--0---1---1---0--0----0-0---0-0--0--------|
D --0--0---2---2---0--0----0-0---0-0--0--------| (repeat)
A --2--2---0---0---0--0----0-0---0-0--0--------|
D --5--5---0---0---0--0----0-0---0-0--0--------|
    then end on...
D --0--0--0---0---0----0----------------|
A --0--0--0---0---0----0----------------|
F#--0--0--0---0---0----0----------------|
D --0--0--0---2---2----2----------------|
A --2--2--2---0---0----0----------------|
D --5--5--5---0---0----0----------------|

then somewhere later:
D --0--0---0--0---0--0--0--0--0---0-----------|
A --0--0---0--0---0--0--0--0--0---0-----------|
F#--0--0---1--1---0--0--0--0--0---0-----------|
D --4--4---0--0---0--0--2--4--2---0-----------|
A --0--0---2--2---0--0--0--0--0---0-----------|
D --5--5---0--0---0--0--0--0--0---0-----------|

i think these are the right chords, you just have to put them in order and
such, and maybe fix up some stuff.
Suggest correction
Give kudos to tab author, rate the tab!
1 2 3 4 5
comments
print report bad tab
guest
You may want to rate the tab now too:
select rating
Wanna post a correction for this tab? Suggest correction