Oops, an error
Loading. Please wait.

The Gardener Tab

version 2
version 2

Whole song

67,778 views 54 this week
2 commentsread comments
1 2 3 4 5
accurate
x 6
add to favorites
launch autoscroll
font size
0
reset
how to read this tab
guitar tuner
Tab Pro tools
  • play this tab
  • loop segment
  • change instrument
  • show fretboard
  • metronome
×
Best way to learn
"The Gardener"
Autoscroll
slow
fast
+/-
esc
set tempo
stop
Capo
7th fret
“The Gardener”
by Tallest Man on Earth

 
Tuning: DADGAD
Capo: 7

Intro:

e|-0-|-0-|
B|-0-|-0-|
G|-2-|-0-| 
D|-0-|-2-|
A|---|---|
E|---|---|

Verse:            

e|-0-|-0-|-0----|-0-|-0----|
B|-0-|-0-|-0----|-0-|-0-(4)|
G|-2-|-0-|-2—(4)|-0-|-0----|  
D|-0-|-2-|-0----|-4-|-2----|
A|-0-|-5-|-2----|-x-|-0----|
E|-0-|---|-x----|-5-|------|

Chorus (1st & 3rd times):

e|-0-|-0---|-0—-2--4-|  
B|-0-|-0---|-0-------|  
G|-0-|-0(4)|-2-------|  
D|-0-|-2---|-0-------|  
A|-2-|-0---|---------|  
E|-5-|-x---|---------|  

Chorus (2nd time):

|-0-|----7| |-0-| |-0-|
|-0-|-----| |-0-| |-0-|
|-2-|-2s4-| |-0-| |-0-|
|-0-|-----| |-0-| |-2-|
|---|-----| |-2-| |-0-|
|---|-----| |-5-| |---|

(in yr eyes babe...):

e|-0-|-0---|-0—| |-0-|
B|-0-|-0---|-0-| |-0-|
G|-2-|-0(4)|-0-| |-7-|
D|-0-|-2---|-4-| |-x-|
A|-0-|-0---|-x-| |-5-|
E|-0-|-x---|-5-| |---|

-tabbed by Joseph Rogers
comments
print report bad tab
2 comments total.
0 reply
deseosuho wrote on January 11 2010, 03:37 pm

It's definitely played in DADEAD tuning. I've been working out the all of the embellishments from a few youtube videos of live performances, and this is by far the most accurate tab yet. Great job.

0 reply
Grahnson wrote on October 10 2011, 09:38 am

No, it's actually played in DADEAd, the third string is tuned in E not G, as you can se inte this video: http://www.youtube.com/watch?v=JLRTleMY_mc at around 3:00

the first grip is right though, with the second fret on the third string

I want to post or [tab]
guest
You may want to rate the tab now too:
select rating
Please do not post tabs as comments. Select "correction" instead!