Oops, an error
Loading. Please wait.

The Sparrow And The Medicine Chords

version 2
version 2

Whole song

Interactive

1,984 views 3 this week
no commentswrite comment
1 2 3 4 5
excellent!
x 1
add to favorites
launch autoscroll
font size
0
reset
transpose
0
reset
simplify chords
- display chords -
guitar tuner
Tab Pro tools
  • play this tab
  • loop segment
  • change instrument
  • show fretboard
  • metronome
Autoscroll
slow
fast
+/-
esc
set tempo
stop
Contributor
The Tallest Man On Earth - The Sparrow and the Medicine 

Capo 7th

Intro/riff
     C        F             C        C/B
e|-------------1h3p1-------------------0h1p0------------|
B|--1--h3p0--1--------1h3p1-1-h3p1---3------------------|
G|--0--------2--------------0--------0------------------|
D|--2--------3--------------2--------0------------------|
A|--3-----------------------3--------2------------------|
E|------------------------------------------------------|
     C        F             C    C/B C
e|-------------1h3p1--------0----0---0-------------|
B|--1--h3p0--1--------1h3p1-1----3---1-------------|
G|--0--------2--------------0----0---0-------------|
D|--2--------3--------------2----0---2-------------|
A|--3-----------------------3----2---3-------------|
E|-------------------------------------------------|

C                                    F
When you mend the patches of my clothing
C                                       C/B
You know every thread goes through my heart
C                               F
Guessin' that the rivers gonna dry up
C                           C/B             C
Well I said that's not the reason why we part

Looking 'round the corner where I left you
Wonderin' whatever led me there
Knowin' that a quiet, unconscious feeling
Could be bought to drown a memory anywhere

Dm                          
She said "I don't want your medicine and
 F                               C
I don't need no sparrow in my heart"
Dm                         
When I'm covered by the thunder
       F                                  C/B
I get rid of all your breath deep in my lungs
                      C
Splittin' the wind apart

And when I touch the ceiling on a spring day
Wishin' it could heed up every crow
So that they could lift me by my shoulders
Take me from this frozen lake and let you know

Just that I want to be your medicine
I want to feed the sparrow in your heart
When we're covered by the thunder
I'll get rid of all the breath deep in our lungs
Splittin' the wind apart

Hell I'm still standing 'round the corner where I left you
Diggin' up a quite sufficient track
Never know when you're behind that angle 
With a tranquilizer gun in your sweet hand

Oh I want to be your medicine 
I want to feed the sparrow in your art
When we're covered by the thunder 
we'd become just one and feel the lightning shard
Splittin' the wind apart
comments
We did not receive enough feedback on this tab! Please rate:
print report bad tab
1 2 3 4 5
I want to post or [tab]
guest
You may want to rate the tab now too:
select rating
Please do not post tabs as comments. Select "correction" instead!