Oops, an error
Loading. Please wait.

Time Of The Blue tab

version 1
version 1

Whole song

4,837 views 33 this week
2 commentsread comments
1 2 3 4 5
x 7
add to favorites
×
Save as Personal and add changes to this tab that will be seen only by you. Learn more ›
×
You can save this tab as Personal to edit and correct it or add notes. All changes will be seen only by you. Learn more »
launch autoscroll
font size
0
reset
how to read this tab
guitar tuner
edit
Autoscroll
slow
fast
+/-
esc
set tempo
stop
Tuning is CGCGCd (if you don't want to risk snapping your B string, tune down to B F# B F# B c#)
Capo on 4 (5th if tuned down)

For the fingering, use this video https://www.youtube.com/watch?v=LykNyTOjFSY

[Intro & Verse]


d|---3--3--3--3-|---3--3--3--3-|---3--3--3--3-|---3--3--3--3-|
C|--2--2--2--2--|--2--2--2--0--|--0--0--0--0--|--0--0--0--0--|
G|----2-----2---|----2-----0---|----2-----2---|----2-----0---|
C|-2-----2------|-------2------|-0-----0------|-------0------|
G|--------------|-2------------|--------------|-2------------|
C|--------------|--------------|--------------|--------------|

d|---3--3--3--3-|---3--3--3--3-|---3--3--3--3-|---3--3---0--0-|
C|--2--2--2--2--|--2--2--2--0--|--0--0--0--0--|--0--0---0--0--|
G|----2-----2---|----2-----0---|----2-----2---|----0----------|
C|-2-----2------|-------2------|-0-----0------|-------/5--4---|
G|--------------|-2------------|--------------|-2-------------|
C|--------------|--------------|--------------|---------------|

d|---2--2--2--2-|----0--0--0--0-|---0--0--0--0-|---0--0--0--0-|
C|--0--0--0--0--|---0--0--0--0--|--0--0--0--0--|--0--0--0--0--|
G|----5-----5---|---------------|----2-----2---|----0-----0---|
C|-0-----0------|-/7--5--4--7---|--------------|--------------|
G|--------------|---------------|-2-----2------|-2-----2------|
C|--------------|---------------|--------------|--------------|

d|----0--0--0--0-|---0--0--0--0-|---0--0--0--0-|---0--0--0--3-|
C|---0--0--0--0--|--0--0--0--0--|--0--0--0--0--|--0--0--0--0--|
G|-----5-----5---|----0-----0---|----0-----0---|----0-----0---|
C|---------------|--------------|--------------|-2------------|
G|---------------|--------------|-0-----0------|-------0------|
C|-/5-----5------|-5-----5------|--------------|--------------|


[Main Chorus]


d|---0--0--0--0-|---0--0--0--0-|---2--2--2--2-|---0--0--0--0-|
C|--0--0--0--0--|--0--0--0--0--|--0--0--0--0--|--0--0--0--0--|
G|----2-----2---|----4-----4---|----0-----0---|----2---------|
C|-5-----5------|--------------|-0-----0------|-5-----5--4---|
G|--------------|-0-----0------|--------------|--------------|
C|--------------|--------------|--------------|--------------|

Then repeat

Sometimes he changes the second bar and plays it with the 2nd fret on the 4th string instead of the open 5th
string like this. Just play around with it and see what you prefer


d|---0--0--0--0-|
C|--0--0--0--0--|
G|----4-----4---|
C|-2-----2------|
G|--------------|
C|--------------|

This is the alternative chorus that he plays the third time around. He plays it slightly differently in the
Albert Hall than he does on the video on the Gravitation youtube channel, but the notes are essentially the 
same.
This is a mixture of the two.


d|---0--0--0--0-|---0--0--0--0-|---0--0--0--0-|---0--0--0--0-|
C|--0--0--0--0--|--0--0--0--0--|--4--4--0--0--|--0--0--0--0--|
G|----0---------|----0-----0---|----0-----0---|----2---------|
C|------5---4---|-2------------|-0-----0------|-5-----5--4---|
G|-5------------|-0-----0------|--------------|--------------|
C|-5------------|--------------|--------------|--------------|

He repeats this through 3 times before going back to the main chorus. Then he goes back to the intro/verse to
 end the song.

************************************

| /   Slide up

************************************
Suggest correction
Creating personal tab
Creating personal tab
You can edit any tab online and save it as your Personal.

You can edit, replace or remove any tab part or add personal notes – all changes will be seen only by you.

Personal tabs can be accessed anytime from any device, even offline.
Learn more »
comments
print report bad tab
2 comments total.
0 reply
kylemgrant 10 Mar 30, 2017 04:39 PM

I was about to start learning this, and realized you used my recording of Time of the Blue! Thanks so much for making this tab!

guest
You may want to rate the tab now too:
select rating
Wanna post a correction for this tab? Suggest correction