Oops, an error
Loading. Please wait.

Where I Thought I Met The Angels tab

version 2
version 2

Whole song

Interactive

879 views 12 this week
1 commentread comment
1 2 3 4 5
x 4
add to favorites
×
Save as Personal and add changes to this tab that will be seen only by you. Learn more ›
×
You can save this tab as Personal to edit and correct it or add notes. All changes will be seen only by you. Learn more »
launch autoscroll
font size
0
reset
how to read this tab
guitar tuner
edit
Autoscroll
slow
fast
+/-
esc
set tempo
stop
-------------------------------------------------------------------------------
          WHERE I THOUGHT I MET THE ANGELS - The Tallest Man On Earth
-------------------------------------------------------------------------------


Tuning: EADGBd
Capo 6th fret

intro
interlude x4
verse
interlude x2
verse
interlude x2
solo 
interlude x4
verse
interlude x2
solo 
ending



Intro

d|---------------|---------------|------------|---------------|
B|----------0----|----------0----|------------|----------0----|
G|--------0------|--------0------|--------0---|--------0------|
D|----0-------0--|----0-------0--|----0-----0-|----0-------0--|
A|---------------|---------------|------------|---------------|
E|--3---3--------|--3---3--------|--3---3-----|--3---3--------|

Interlude

d|----0---0---0---0---0----|
B|----------------------0--|
G|-------------------------|
D|----0-----0---0-------0--|
A|-------------------------|
E|--3---3-----3-----3------|

Verse

d|------------2----------|------------0------------|-----------------------|------------0------------|
B|--------3-------3------|--------1-------1--------|--------0---------0----|--------1-------1--------|
G|----4------------------|----0---------------0----|----0---------2--------|----0---------------0----|
D|----4-----4---4-----0--|----2-----2---2-------0--|----0-----0---0-----0--|----2-----2---2-------0--|x4
A|--2---2-----2-----2----|--3---------3-----3------|-----------------------|--3---------3-----3------|
E|-----------------------|------3------------------|--3---3-----2---2------|------3------------------|

d|--------0-------0--------|
B|----0-------0-------0----|
G|-------------------------|
D|----2-----2---2-------0--|
A|--3---------3------------|
E|------3-----------3------|

d|------------2----------|------------0------------|-------------------------|------------0------------|
B|--------3-------3------|--------1-------1--------|----------0---------0----|--------1-------1--------|
G|----4------------------|----0---------------0----|----------------0--------|----0---------------0----|
D|----4-----4---4-----0--|----2-----2---2-------0--|----2-------0---0-----0--|----2-----2---2-------0--|
A|--2---2-----2-----2----|--3---------3-----3------|----2--------------------|--3---------3-----3------|
E|-----------------------|------3------------------|--0---0h2-----3---3------|------3------------------|

d|------------2----------|------------0------------|-----------------------|
B|--------3-------3------|--------1-------1--------|--------0---------0----|
G|----4------------------|----0---------------0----|----0---------2--------|
D|----4-----4---4-----0--|----2-----2---2-------0--|----0-----0---0-----0--|
A|--2---2-----2-----2----|--3---------3-----3------|-----------------------|
E|-----------------------|------3------------------|--3---3-----2---2------|

Solo

d|------------2----------|------------0------------|-----------------------|------------0------------|
B|--------3-------3------|--------1-------1--------|----1p0----------0-----|--------1-------1--------|
G|----4------4-------4---|----0---------------0----|---------0---2------2--|----0---------------0----|
D|----4-----4---4-----0--|----2-----2---2-------0--|----0-----0----0-----0-|----2-----2---2-------0--|
A|--2---2-----2-----2----|--3---------3------------|-----------------------|--3---------3------------|
E|-----------------------|------3-----------3------|--3----3-----2-----2---|------3-----------3------|

d|------------2----------|------------0------------|-----------------------|
B|--------3-------3------|--------1-------1--------|----1p0----------0-----|
G|----4------4-------4---|----0---------------0----|---------0---2------2--|
D|----4-----4---4-----0--|----2-----2---2-------0--|----0-----0----0-----0-|
A|--2---2-----2-----2----|--3---------3------------|-----------------------|
E|-----------------------|------3-----------3------|--3----3-----2-----2---|

Ending

d|-----|
B|-----|
G|--0--|
D|--0--|
A|--2--|
E|--3--|


Lyrics
                                                       |---------
                                                       |intro
                                                       |---------
                                                       |interlude
                                                       |---------
Never once an ocean                                    |
could hold me on its shore                             |
standing calm with all its motion                      |
with all the movement of its flow                      |
cause I know way back in the distance                  |
all the safer sorrows burned                           |
the ones with no intent to drown you                   |
the ones where nothin's to be learned                  |verse
                                                       |
so now i'm headin' down a back road                    |
the one that no one really takes                       |
'cept for me now to be nowhere                         |
when that early morning breaks                         |
                                                       |---------
                                                       |interlude
                                                       |---------
Now I'm dancin' with the mad girls                     |
the ones who sin out by the town                       |
who were brought up by bell towers                     |
and always nurtured by its sound                       |
I heard them sing out in their language                |
already when I was still free                          |
oh God I thought I heard the angels                    |
what kind of fool'd you put in me?                     |verse
                                                       |
'Cause now I'm tied by up by a back road, y'know       |
the one that no one really takes                       |
'cept for me now to be nowhere                         |
when that early morning breaks                         |
                                                       |---------
                                                       |interlude
                                                       |---------
                                                       |solo
                                                       |---------
They sure won't let me leave this summer no no no      |
and they won't let me go this fall                     |
and with the likelihood of winter                      |
they'll take the heat out of us all                    |
just to deliver all their daughters                    |
to track down sons of serpent roads                    |
and let me look out over slaughter                     |
to have a night out with the boys                      |verse
                                                       |
And now i'm takin' off the back road, y'know           |
the one that no one really takes                       |
'cept for me now to be nowhere                         |
when that early morning breaks                         |
                                                       |---------
                                                       |interlude
                                                       |---------
                                                       |solo
                                                       |---------


************************************

| /   slide up
| \   slide down
| h   hammer-on
| p   pull-off
| ~   vibrato
| +   harmonic
| x   Mute note
| b   Bend
| pb  Pre-bend
| br  Bend release
| pbr Pre-bend release
| brb Bend release bend

************************************

            
            
Suggest correction
Creating personal tab
Creating personal tab
You can edit any tab online and save it as your Personal.

You can edit, replace or remove any tab part or add personal notes – all changes will be seen only by you.

Personal tabs can be accessed anytime from any device, even offline.
Learn more »
comments
print report bad tab
1 comment total.
+1 reply
jorisjandoets 10 Aug 17, 2016 11:41 AM

sounds pretty good to me, great job!!!

guest
You may want to rate the tab now too:
select rating
Wanna post a correction for this tab? Suggest correction