Oops, an error
Loading. Please wait.

Fake A Smile Tab

4 views 3 this week
no commentswrite comment
1 2 3 4 5
3 more votes to show rating
add to favorites
launch autoscroll
font size
0
reset
how to read this tab
guitar tuner
Autoscroll
slow
fast
+/-
esc
set tempo
stop
Help us to improve Ultimate-Guitar.com Take our survey!
×
Author
Difficulty
intermediate
About this tab version
Has all the guitar minus a couple harmonies on some riffs. Was this info helpful? Yes No
Guitar 1 is in standard but the low E is tuned down to C

[Intro]
|Guitar 1
e|---------------------------------------------------------------------------|
B|---------------------------------------------------------------------------|
G|---------------------------------------------------------------------------|
D|---------------------------------------------------------------------------|
A|---------------------------------------------------------------------------|
C|---0----0----0----0----0----0----0----0------------------------------------|

|Guitar 1                             When You
e|---------------------------------------------------------------------------|
B|-------------------------------------8--11-10-8----------------------------|
G|------------------------------8h9------------------------------------------|
D|----------------------------------10---------------------------------------|
A|---------------------------------------------------------------------------|
C|---0----0----0----0----0----0----------------------------------------------|

[Verse]

|Guitar 1   Fake a smile  You can be who you want
e|---------------------------------------------------------------------------|
B|---------------------------------------------------------------------------|
G|---------------------------------------------------------------------------|
D|---------------------------------------------------------------------------|
A|---------------------------------------------------------------------------|
C|----------0----0----0----0----0----0----0----0-----------------------------|

|Guitar 1 But if the grip don't come will you fall apart
e|---------------------------------------------------------------------------|
B|----------------------------------------------8--11-10-8-------------------|
G|---------------------------------------8h9---------------------------------|
D|-------------------------------------------10------------------------------|
A|---------------------------------------------------------------------------|
C|----------0----0----0----0----0----0---------------------------------------|

|Guitar 1   If you reach up there cos you know what you want
e|---------------------------------------------------------------------------|
B|---------------------------------------------------------------------------|
G|---------------------------------------------------------------------------|
D|---------------------------------------------------------------------------|
A|---------------------------------------------------------------------------|
C|----------0----0----0----0----0----0----0----0-----------------------------|

|Guitar 1   The blame and fame from yourself cos you know you're wrong
e|---------------------------------------------------------------------------|
B|---------------------------------------------------------------------------|
G|---------------------------------------------------------------------------|
D|-------------------------------------3b5r3-1-------------------------------|
A|---------------------------------------------3-1-3-------------------------|
C|----------0----0----0----0----0----0---------------0-----------------------|

|Guitar 1   Yea you know you're wrong you know youre wrong
e|---------------------------------------------------------------------------|
B|---------------------------------------------------------------------------|
G|---------------------------------------------------------------------------|
D|-------------------------------------3b5r3-1-------------------------------|
A|---------------------------------------------3-1-3-------------------------|
C|----------0----0----0----0----0----0---------------0-----------------------|

|Guitar 1   Yea you know you're wrong
e|---------------------------------------------------------------------------|
B|---------------------------------------------------------------------------|
G|---------------------------------------------------------------------------|
D|-------------------------------------3b5r3-1-------------------------------|
A|---------------------------------------------3-1-3-------------------------|
C|----------0----0----0----0----0----0---------------0-----------------------|

|Guitar 1    If you reach up there to sell the souls of your heart
e|---------------------------------------------------------------------------|
B|----------------------------------------------8--11-10-8-------------------|
G|---------------------------------------8h9---------------------------------|
D|-------------------------------------------10------------------------------|
A|---------------------------------------------------------------------------|
C|----------0----0----0----0----0----0---------------------------------------|

|Guitar 1   You can say a prayer cos you just sold your own
e|---------------------------------------------------------------------------|
B|----------------------------------------------8--11-10-8-------------------|
G|---------------------------------------8h9---------------------------------|
D|-------------------------------------------10------------------------------|
A|---------------------------------------------------------------------------|
C|----------0----0----0----0----0----0---------------------------------------|

|Guitar 1   Yea you sold your own      You sold your own
e|---------------------------------------------------------------------------|
B|-------------------------8--11-10-8-----------------8--11-10-8-------------|
G|------------------8h9------------------------8h9---------------------------|
D|----------------------10-------------------------10------------------------|
A|---------------------------------------------------------------------------|
C|----------0----0---------------------0----0--------------------------------|

|Guitar 1   sold your own
e|---------------------------------------------------------------------------|
B|---------------------------------------------------------------------------|
G|---------------------------------------------------------------------------|
D|---------------------------------------------------------------------------|
A|---------------------------------------------------------------------------|
C|----------0----0----0------------------------------------------------------|

Break with just keys during the bridge or whatever. guitar comes back in with this riff
which goes for a while until the breakdown
e|---------------------------------------------------------------------------|
B|---------------------------------------------------------------------------|
G|-------5b8-5-3-2-3-5b8-5-3-2-3---------------------------------------------|
D|---------------------------------------------------------------------------|
A|---------------------------------------------------------------------------|
C|---------------------------------------------------------------------------|

Breakdown

e|---------------------------------------------------------------------------|
B|---------------------------------------------------------------------------|
G|---------------------------------------------------------------------------|
D|-------3b5r3-1---------3b5r3-1---------3b5r3-1-----------------------------|
A|----------------3-1-3----------3-1-3-----------3-1-3----1-3---1-3----------|
C|------------------------------------------------------0-----0-----0--------|

Repeat on that riff until the end.

************************************

| h   Hammer-on
| p   Pull-off
| r   Release
| b   Bend

************************************
Suggest correction
Give kudos to tab author, rate the tab!
1 2 3 4 5
comments
print report bad tab
guest
You may want to rate the tab now too:
select rating
Wanna post a correction for this tab? Suggest correction