Oops, an error
Loading. Please wait.

Saturday Night Tab

7 views 1 this week
no commentswrite comment
1 2 3 4 5
3 more votes to show rating
add to favorites
launch autoscroll
font size
0
reset
how to read this tab
guitar tuner
Autoscroll
slow
fast
+/-
esc
set tempo
stop
Help us to improve Ultimate-Guitar.com Take our survey!
×
Author
Difficulty
intermediate
Played in a pretty sloppy style, often strumming extra notes here and there but this should be the main idea
e|---------------------------------------------------------------------------------|
B|---6---------------------------9b11r9-6b7--6-------------------------6---6--6----|
G|---8b10-pb10r8--6--8b10r8--6---------------8b10-h10r8--6--8b10r8--6--6---6--8--6-|
D|---------------------------------------------------------------------6h8---------|
A|---------------------------------------------------------------------------------|
E|---------------------------------------------------------------------------------|

e|-------------------------------------9-------11b13r11--9------9------------------|
B|----------------------------9--9/11-----11----------------11-----9---------------|
G|---8b10-pb10r8--6--8--8/10------------------------------------------10-----------|
D|---------------------------------------------------------------------------------|
A|---------------------------------------------------------------------------------|
E|---------------------------------------------------------------------------------|

e|------------------------------------------------------9--11b13-11b13-11b13r11----|
B|---6-----6-----------------------------------9--9/11-----------------------------|
G|---8b10--8b10pb10r8--6--8--6--6-6-6-8---8/10-------------------------------------|
D|------------------------------6-8------------------------------------------------|
A|---------------------------------------------------------------------------------|
E|---------------------------------------------------------------------------------|

************************************
| r   Release
| b   Bend
| pb  Pre-bend
| /   Slide up
************************************
Suggest correction
Give kudos to tab author, rate the tab!
1 2 3 4 5
comments
print report bad tab
guest
You may want to rate the tab now too:
select rating
Wanna post a correction for this tab? Suggest correction