Oops, an error
Loading. Please wait.

Songbird Tab

7 views 3 this week
no commentswrite comment
1 2 3 4 5
3 more votes to show rating
add to favorites
launch autoscroll
font size
0
reset
how to read this tab
guitar tuner
Autoscroll
slow
fast
+/-
esc
set tempo
stop
Help us to improve Ultimate-Guitar.com Take our survey!
×
Author
Difficulty
intermediate
[Intro]

E|---------------------------------------------------------------------------|
B|------12---12---12---12---12---12---12---12--------------------------------|
G|------0----0----0----0----0----0----0----0---------------------------------|
D|---------------------------------------------------------------------------|
A|----10---10---10---10---10---10---10---10----------------------------------|
E|---------------------------------------------------------------------------|

E|---------------------------------------------------------------------------|
B|------12---12---12---12---7----7----7----7---------------------------------|
G|------0----0----0----0----0----0----0----0---------------------------------|
D|---------------------------------------------------------------------------|
A|----10---10---10---10----5----5----5----5----------------------------------|
E|---------------------------------------------------------------------------|

E|---------------------------------------------------------------------------|
B|------8----8----8----8----8----8----8----8---------------------------------|
G|------0----0----0----0----0----0----0----0---------------------------------|
D|---------------------------------------------------------------------------|
A|-----7----7----7----7----7----7----7----7----------------------------------|
E|---------------------------------------------------------------------------|

E|---------------------------------------------------------------------------|
B|------8----8----8----8----8----8----8----8---------------------------------|
G|------0----0----0----0----0----0----0----0---------------------------------|
D|---------------------------------------------------------------------------|
A|-----7----7----7----7----7----7----7----7----------------------------------|
E|---------------------------------------------------------------------------|

[Verse]
        talking to a songbird yesterday
E|---------------------------------------------------------------------------|
B|------12---12---12---12---12---12---12---12--------------------------------|
G|------0----0----0----0----0----0----0----0---------------------------------|
D|---------------------------------------------------------------------------|
A|----10---10---10---10---10---10---10---10----------------------------------|
E|---------------------------------------------------------------------------|
       Flew me to a place not far away
E|---------------------------------------------------------------------------|
B|------12---12---12---12---7----7----7----7---------------------------------|
G|------0----0----0----0----0----0----0----0---------------------------------|
D|---------------------------------------------------------------------------|
A|----10---10---10---10----5----5----5----5----------------------------------|
E|---------------------------------------------------------------------------|
       She's a little pilot in my mind
E|---------------------------------------------------------------------------|
B|------8----8----8----8----8----8----8----8---------------------------------|
G|------0----0----0----0----0----0----0----0---------------------------------|
D|---------------------------------------------------------------------------|
A|-----7----7----7----7----7----7----7----7----------------------------------|
E|---------------------------------------------------------------------------|
      Singing songs of love to pass the time
E|---------------------------------------------------------------------------|
B|------8----8----8----8----10---10---10---10--------------------------------|
G|------0----0----0----0----0----0----0----0---------------------------------|
D|---------------------------------------------------------------------------|
A|-----7----7----7----7----9----9----9----9----------------------------------|
E|---------------------------------------------------------------------------|
       Gonna write a song so she can see
E|---------------------------------------------------------------------------|
B|------12---12---12---12---12---12---12---12--------------------------------|
G|------0----0----0----0----0----0----0----0---------------------------------|
D|---------------------------------------------------------------------------|
A|----10---10---10---10---10---10---10---10----------------------------------|
E|---------------------------------------------------------------------------|
       give her all the love she gives to me
E|---------------------------------------------------------------------------|
B|------12---12---12---12---7----7----7----7---------------------------------|
G|------0----0----0----0----0----0----0----0---------------------------------|
D|---------------------------------------------------------------------------|
A|----10---10---10---10----5----5----5----5----------------------------------|
E|---------------------------------------------------------------------------|
       talk of better days that have yet to come
E|---------------------------------------------------------------------------|
B|------8----8----8----8----8----8----8----8---------------------------------|
G|------0----0----0----0----0----0----0----0---------------------------------|
D|---------------------------------------------------------------------------|
A|-----7----7----7----7----7----7----7----7----------------------------------|
E|---------------------------------------------------------------------------|
      never felt this love from anyone
E|---------------------------------------------------------------------------|
B|------8----8----8----8----10---10---10---10--------------------------------|
G|------0----0----0----0----0----0----0----0---------------------------------|
D|---------------------------------------------------------------------------|
A|-----7----7----7----7----9----9----9----9----------------------------------|
E|---------------------------------------------------------------------------|

E|---------------------------------------------------------------------------|
B|------12---12---12---12---12---12---12---12--------------------------------|
G|------0----0----0----0----0----0----0----0---------------------------------|
D|---------------------------------------------------------------------------|
A|----10---10---10---10---10---10---10---10----------------------------------|
E|---------------------------------------------------------------------------|
          She's not anyone
E|---------------------------------------------------------------------------|
B|------12---12---12---12---7----7----7----7---------------------------------|
G|------0----0----0----0----0----0----0----0---------------------------------|
D|---------------------------------------------------------------------------|
A|----10---10---10---10----5----5----5----5----------------------------------|
E|---------------------------------------------------------------------------|

E|---------------------------------------------------------------------------|
B|------8----8----8----8----8----8----8----8---------------------------------|
G|------0----0----0----0----0----0----0----0---------------------------------|
D|---------------------------------------------------------------------------|
A|-----7----7----7----7----7----7----7----7----------------------------------|
E|---------------------------------------------------------------------------|

E|---------------------------------------------------------------------------|
B|------8----8----8----8----7----7----7----7---------------------------------|
G|------0----0----0----0----0----0----0----0---------------------------------|
D|---------------------------------------------------------------------------|
A|-----7----7----7----7----5----5----5----5----------------------------------|
E|---------------------------------------------------------------------------|
          A man can never dream these kinds of things
E|---------------------------------------------------------------------------|
B|------12---12---12---12---12---12---12---12--------------------------------|
G|------0----0----0----0----0----0----0----0---------------------------------|
D|---------------------------------------------------------------------------|
A|----10---10---10---10---10---10---10---10----------------------------------|
E|---------------------------------------------------------------------------|
       Especially when she came and spread her wings
E|---------------------------------------------------------------------------|
B|------12---12---12---12---7----7----7----7---------------------------------|
G|------0----0----0----0----0----0----0----0---------------------------------|
D|---------------------------------------------------------------------------|
A|----10---10---10---10----5----5----5----5----------------------------------|
E|---------------------------------------------------------------------------|
       Whispered in my ear all the things I like
E|---------------------------------------------------------------------------|
B|------8----8----8----8----8----8----8----8---------------------------------|
G|------0----0----0----0----0----0----0----0---------------------------------|
D|---------------------------------------------------------------------------|
A|-----7----7----7----7----7----7----7----7----------------------------------|
E|---------------------------------------------------------------------------|
       Then she flew away into the night
E|---------------------------------------------------------------------------|
B|------8----8----8----8----10---10---10---10--------------------------------|
G|------0----0----0----0----0----0----0----0---------------------------------|
D|---------------------------------------------------------------------------|
A|-----7----7----7----7----9----9----9----9----------------------------------|
E|---------------------------------------------------------------------------|
      Gonna write a song so she can see
E|---------------------------------------------------------------------------|
B|------12---12---12---12---12---12---12---12--------------------------------|
G|------0----0----0----0----0----0----0----0---------------------------------|
D|---------------------------------------------------------------------------|
A|----10---10---10---10---10---10---10---10----------------------------------|
E|---------------------------------------------------------------------------|
       give her all the love she gives to me
E|---------------------------------------------------------------------------|
B|------13---13---13---13---7----7----7----7---------------------------------|
G|------0----0----0----0----0----0----0----0---------------------------------|
D|---------------------------------------------------------------------------|
A|----12---12---12---12----5----5----5----5----------------------------------|
E|---------------------------------------------------------------------------|
       talk of better days that have yet to come
E|---------------------------------------------------------------------------|
B|------8----8----8----8----8----8----8----8---------------------------------|
G|------0----0----0----0----0----0----0----0---------------------------------|
D|---------------------------------------------------------------------------|
A|-----7----7----7----7----7----7----7----7----------------------------------|
E|---------------------------------------------------------------------------|
      never felt this love from anyone
E|---------------------------------------------------------------------------|
B|------8----8----8----8----3----3----3----3---------------------------------|
G|------0----0----0----0----0----0----0----0---------------------------------|
D|---------------------------------------------------------------------------|
A|-----7----7----7----7----2----2----2----2----------------------------------|
E|---------------------------------------------------------------------------|

E|---------------------------------------------------------------------------|
B|------5----5----5----5----5----5----5----5---------------------------------|
G|------0----0----0----0----0----0----0----0---------------------------------|
D|---------------------------------------------------------------------------|
A|-----3----3----3----3----3----3----3----3----------------------------------|
E|---------------------------------------------------------------------------|

E|---------------------------------------------------------------------------|
B|------5----5----5----5----7----7----7----7---------------------------------|
G|------0----0----0----0----0----0----0----0---------------------------------|
D|---------------------------------------------------------------------------|
A|-----3----3----3----3----5----5----5----5----------------------------------|
E|---------------------------------------------------------------------------|
  
E|---------------------------------------------------------------------------|
B|------8----8----8----8----8----8----8----8---------------------------------|
G|------0----0----0----0----0----0----0----0---------------------------------|
D|---------------------------------------------------------------------------|
A|-----7----7----7----7----7----7----7----7----------------------------------|
E|---------------------------------------------------------------------------|
    
E|---------------------------------------------------------------------------|
B|------8----8----8----8----3----3----3----3---------------------------------|
G|------0----0----0----0----0----0----0----0---------------------------------|
D|---------------------------------------------------------------------------|
A|-----7----7----7----7----2----2----2----2----------------------------------|
E|---------------------------------------------------------------------------|

Repeat this new progression throughout the outro until the end of the song.
End on a strum of this chord 
E|-x-|
B|-12|
G|-0-|
D|-x-|
A|-10|
E|-x-|
Suggest correction
Give kudos to tab author, rate the tab!
1 2 3 4 5
comments
print report bad tab
guest
You may want to rate the tab now too:
select rating
Wanna post a correction for this tab? Suggest correction