Oops, an error
Loading. Please wait.

Space Cadet Tab

13 views 1 this week
no commentswrite comment
1 2 3 4 5
3 more votes to show rating
add to favorites
launch autoscroll
font size
0
reset
how to read this tab
guitar tuner
Autoscroll
slow
fast
+/-
esc
set tempo
stop
Help us to improve Ultimate-Guitar.com Take our survey!
×
Author
Difficulty
intermediate
[Intro]

e|---------------------------------------------------------------------------|
B|---------------------------------------------------------------------------|
G|---------------------------------------------------------------------------|
D|---------------------------------------------------------------------------|
A|------6---6---6---6---6---6---6---6---6---6---6---6---6---6---6---6--------|
E|----7---7---7---7---7---7---7---7---7---7---7---7---7---7---7---7----------|

e|---------------------------------------------------------------------------|
B|---------------------------------------------------------------------------|
G|---------------------------------------------------------------------------|
D|------6---6---6---6---6---6---6---6---6---8---8---9---9---9---9---9--------|
A|----7---7---7---7---7---7---7---7---7---7---7---7---7---7---7---7----------|
E|---------------------------------------------------------------------------|


[Verse]
   This place is gonna drag me down I can't remember where I'm 
e|---------------------------------------------------------------------------|
B|---------------------------------------------------------------------------|
G|---------------------------------------------------------------------------|
D|---------------------------------------------------------------------------|
A|------6---6---6---6---6---6---6---6---6---6---6---6---6---6---6---6--------|
E|----7---7---7---7---7---7---7---7---7---7---7---7---7---7---7---7----------|
     supposed       to go
e|---------------------------------------------------------------------------|
B|---------------------------------------------------------------------------|
G|---------------------------------------------------------------------------|
D|------6---6---6---6---6---6---6---6---6---8---8---9---9---9---9---9--------|
A|----7---7---7---7---7---7---7---7---7---7---7---7---7---7---7---7----------|
E|---------------------------------------------------------------------------|
      You think you got me figured out so light me up my lumen
e|---------------------------------------------------------------------------|
B|---------------------------------------------------------------------------|
G|---------------------------------------------------------------------------|
D|---------------------------------------------------------------------------|
A|------6---6---6---6---6---6---6---6---6---6---6---6---6---6---6---6--------|
E|----7---7---7---7---7---7---7---7---7---7---7---7---7---7---7---7----------|
            Watch Me glow                    I know I don't belong
e|---------------------------------------------------------------------------|
B|---------------------------------------------------------------------------|
G|---------------------------------------------------------------------------|
D|------6---6---6---6---6---6---6---6---6---8---8---9---9---9---9---9--------|
A|----7---7---7---7---7---7---7---7---7---7---7---7---7---7---7---7----------|
E|---------------------------------------------------------------------------|

       belong         I knew it all along          but I'm just a
e|---------------------------------------------------------------------------|
B|---------------------------------------------------------------------------|
G|---------------------------------------------------------------------------|
D|------2---2---2---2---2---2---2---2---8---8---8---8---8---8---8---8--------|
A|----4---4---4---4---4---4---4---4---9---9---9---9---9---9---9---9----------|
E|---------------------------------------------------------------------------|

[Chorus]
      space cadet With no where to    lay my head      
e|-----------------------------------------------------------------------------|
B|-----------------------------------------------------------------------------|
G|-----------------------------------------------------------------------------|
D|----------------------------------------9----9----9----9----9----9----9----9-|
A|------6---6---6---6---6---6---6---6--11---11---11---11---11---11---11---11---|
E|----7---7---7---7---7---7---7---7--------------------------------------------|
      All cos I can't know anything at all         Cos I'm just a 
e|---------------------------------------------------------------------------|
B|---------------------------------------------------------------------------|
G|---------------------------------------------------------------------------|
D|------6---6---6---6---6---6---6---6---8---8---8---8---8---8---8---8--------|
A|----7---7---7---7---7---7---7---7---9---9---9---9---9---9---9---9----------|
E|---------------------------------------------------------------------------|

      space cadet With no where to  lay my head              So reel me
e|-----------------------------------------------------------------------------|
B|-----------------------------------------------------------------------------|
G|-----------------------------------------------------------------------------|
D|----------------------------------------9----9----9----9----9----9----9----9-|
A|------6---6---6---6---6---6---6---6--11---11---11---11---11---11---11---11---|
E|----7---7---7---7---7---7---7---7--------------------------------------------|
      in                               and just set me off 
e|---------------------------------------------------------------------------|
B|---------------------------------------------------------------------------|
G|---------------------------------------------------------------------------|
D|------6---6---6---6---6---6---6---6---8---8---8---8---8---8---8---8--------|
A|----7---7---7---7---7---7---7---7---9---9---9---9---9---9---9---9----------|
E|---------------------------------------------------------------------------|
      Off
e|---------------------------------------------------------------------------|
B|---------------------------------------------------------------------------|
G|---------------------------------------------------------------------------|
D|------6---6---6---6---6---6---6---6---6---8---8---8---8---8---8---8--------|
A|----7---7---7---7---7---7---7---7---7---7---9---9---9---9---9---9----------|
E|---------------------------------------------------------------------------|

[Verse]
   This place is gonna drag me down I can't remember where I was
e|---------------------------------------------------------------------------|
B|---------------------------------------------------------------------------|
G|---------------------------------------------------------------------------|
D|---------------------------------------------------------------------------|
A|------6---6---6---6---6---6---6---6---6---6---6---6---6---6---6---6--------|
E|----7---7---7---7---7---7---7---7---7---7---7---7---7---7---7---7----------|
     meant       to roam
e|---------------------------------------------------------------------------|
B|---------------------------------------------------------------------------|
G|---------------------------------------------------------------------------|
D|------6---6---6---6---6---6---6---6---6---8---8---9---9---9---9---9--------|
A|----7---7---7---7---7---7---7---7---7---7---7---7---7---7---7---7----------|
E|---------------------------------------------------------------------------|
      You left me in the lost in found as fragile as a child dog
e|---------------------------------------------------------------------------|
B|---------------------------------------------------------------------------|
G|---------------------------------------------------------------------------|
D|---------------------------------------------------------------------------|
A|------6---6---6---6---6---6---6---6---6---6---6---6---6---6---6---6--------|
E|----7---7---7---7---7---7---7---7---7---7---7---7---7---7---7---7----------|
                 Don't you know          I know I don't
e|---------------------------------------------------------------------------|
B|---------------------------------------------------------------------------|
G|---------------------------------------------------------------------------|
D|------6---6---6---6---6---6---6---6---6---8---8---9---9---9---9---9--------|
A|----7---7---7---7---7---7---7---7---7---7---7---7---7---7---7---7----------|
E|---------------------------------------------------------------------------|
       belong         I knew it all along          but I'm just a
e|---------------------------------------------------------------------------|
B|---------------------------------------------------------------------------|
G|---------------------------------------------------------------------------|
D|------2---2---2---2---2---2---2---2---8---8---8---8---8---8---8---8--------|
A|----4---4---4---4---4---4---4---4---9---9---9---9---9---9---9---9----------|
E|---------------------------------------------------------------------------|

[Chorus]
      space cadet With no where to    lay my head      
e|-----------------------------------------------------------------------------|
B|-----------------------------------------------------------------------------|
G|-----------------------------------------------------------------------------|
D|----------------------------------------9----9----9----9----9----9----9----9-|
A|------6---6---6---6---6---6---6---6--11---11---11---11---11---11---11---11---|
E|----7---7---7---7---7---7---7---7--------------------------------------------|
      All cos I can't know anything at all         Cos I'm just a 
e|---------------------------------------------------------------------------|
B|---------------------------------------------------------------------------|
G|---------------------------------------------------------------------------|
D|------6---6---6---6---6---6---6---6---8---8---8---8---8---8---8---8--------|
A|----7---7---7---7---7---7---7---7---9---9---9---9---9---9---9---9----------|
E|---------------------------------------------------------------------------|

      space cadet With no where to  lay my head              So reel me
e|-----------------------------------------------------------------------------|
B|-----------------------------------------------------------------------------|
G|-----------------------------------------------------------------------------|
D|----------------------------------------9----9----9----9----9----9----9----9-|
A|------6---6---6---6---6---6---6---6--11---11---11---11---11---11---11---11---|
E|----7---7---7---7---7---7---7---7--------------------------------------------|
      in                               and just set me off 
e|---------------------------------------------------------------------------|
B|---------------------------------------------------------------------------|
G|---------------------------------------------------------------------------|
D|------6---6---6---6---6---6---6---6---8---8---8---8---8---8---8---8--------|
A|----7---7---7---7---7---7---7---7---9---9---9---9---9---9---9---9----------|
E|---------------------------------------------------------------------------|
      Off
e|---------------------------------------------------------------------------|
B|---------------------------------------------------------------------------|
G|---------------------------------------------------------------------------|
D|------6---6---6---6---6---6---6---6---8---8---8---8---8---8---8---8--------|
A|----7---7---7---7---7---7---7---7---9---9---9---9---9---9---9---9----------|
E|---------------------------------------------------------------------------|

[Break]

e|-----------------------------------------------------------------------------|
B|-----------------------------------------------------------------------------|
G|-----------------------------------------------------------------------------|
D|-------9----9----9----9----9----9----9----9----6---6---6---6---6---6---6---6-|
A|----11---11---11---11---11---11---11---11----7---7---7---7---7---7---7---7---|
E|-----------------------------------------------------------------------------|

e|-----------------------------------------------------------------------------|
B|-----------------------------------------------------------------------------|
G|-----------------------------------------------------------------------------|
D|-------9----9----9----9----9----9----9----9----6---6---6---6---6---6---6---6-|
A|----11---11---11---11---11---11---11---11----7---7---7---7---7---7---7---7---|
E|-----------------------------------------------------------------------------|
                                                       And just set me 
e|---------------------------------------------------------------------------|
B|---------------------------------------------------------------------------|
G|---------------------------------------------------------------------------|
D|------8---8---8---8---8---8---8---8---8---8---8---8---8---8---8---8--------|
A|----9---9---9---9---9---9---9---9---9---9---9---9---9---9---9---9----------|
E|---------------------------------------------------------------------------|
      Off
e|-----------------------------------------------------------------------------|
B|-----------------------------------------------------------------------------|
G|-----------------------------------------------------------------------------|
D|-------9----9----9----9----9----9----9----9----6---6---6---6---6---6---6---6-|
A|----11---11---11---11---11---11---11---11----7---7---7---7---7---7---7---7---|
E|-----------------------------------------------------------------------------|

e|-----------------------------------------------------------------------------|
B|-----------------------------------------------------------------------------|
G|-----------------------------------------------------------------------------|
D|-------9----9----9----9----9----9----9----9----6---6---6---6---6---6---6---6-|
A|----11---11---11---11---11---11---11---11----7---7---7---7---7---7---7---7---|
E|-----------------------------------------------------------------------------|

e|---------------------------------------------------------------------------|
B|---------------------------------------------------------------------------|
G|---------------------------------------------------------------------------|
D|------8---8---8---8---8---8---8---8---8---8---8---8---8---8---8---8--------|
A|----9---9---9---9---9---9---9---9---9---9---9---9---9---9---9---9----------|
E|---------------------------------------------------------------------------|

[Verse]
     I can't remember who's to blame I can't remember nothing at all
e|---------------------------------------------------------------------------|
B|---------------------------------------------------------------------------|
G|---------------------------------------------------------------------------|
D|---------------------------------------------------------------------------|
A|------6---6---6---6---6---6---6---6---6---6---6---6---6---6---6---6--------|
E|----7---7---7---7---7---7---7---7---7---7---7---7---7---7---7---7----------|
                    oh no                         I know I don't
e|---------------------------------------------------------------------------|
B|---------------------------------------------------------------------------|
G|---------------------------------------------------------------------------|
D|------6---6---6---8---8---9---9----9---------------------------------------|
A|----7---7---7---7---7---7---7---7--7---------------------------------------|
E|---------------------------------------------------------------------------|
       belong         I knew it all along          but I'm just a
e|---------------------------------------------------------------------------|
B|---------------------------------------------------------------------------|
G|---------------------------------------------------------------------------|
D|------2---2---2---2---2---2---2---2---8---8---8---8---8---8---8---8--------|
A|----4---4---4---4---4---4---4---4---9---9---9---9---9---9---9---9----------|
E|---------------------------------------------------------------------------|


[Chorus]
      space cadet With no where to    lay my head            so right me
e|-----------------------------------------------------------------------------|
B|-----------------------------------------------------------------------------|
G|-----------------------------------------------------------------------------|
D|----------------------------------------9----9----9----9----9----9----9----9-|
A|------6---6---6---6---6---6---6---6--11---11---11---11---11---11---11---11---|
E|----7---7---7---7---7---7---7---7--------------------------------------------|
      Off cos I can't know anything at all         Cos I'm just a 
e|---------------------------------------------------------------------------|
B|---------------------------------------------------------------------------|
G|---------------------------------------------------------------------------|
D|------6---6---6---6---6---6---6---6---8---8---8---8---8---8---8---8--------|
A|----7---7---7---7---7---7---7---7---9---9---9---9---9---9---9---9----------|
E|---------------------------------------------------------------------------|
      space cadet With no where to  lay my head              So reel me
e|-----------------------------------------------------------------------------|
B|-----------------------------------------------------------------------------|
G|-----------------------------------------------------------------------------|
D|----------------------------------------9----9----9----9----9----9----9----9-|
A|------6---6---6---6---6---6---6---6--11---11---11---11---11---11---11---11---|
E|----7---7---7---7---7---7---7---7--------------------------------------------|
      in                               and just set me off 
e|---------------------------------------------------------------------------|
B|---------------------------------------------------------------------------|
G|---------------------------------------------------------------------------|
D|------6---6---6---6---6---6---6---6---8---8---8---8---8---8---8---8--------|
A|----7---7---7---7---7---7---7---7---9---9---9---9---9---9---9---9----------|
E|---------------------------------------------------------------------------|
      Off
e|---------------------------------------------------------------------------|
B|---------------------------------------------------------------------------|
G|---------------------------------------------------------------------------|
D|------6---6---6---6---6---6---6---6---6---6---8---8---8---8---8---8--------|
A|----7---7---7---7---7---7---7---7---7---7---9---9---9---9---9---9----------|
E|---------------------------------------------------------------------------|

[Outro]
e|-----------------------------------------------------------------------------|
B|-----------------------------------------------------------------------------|
G|-----------------------------------------------------------------------------|
D|-------9----9----9----9----9----9----9----9----6---6---6---6---6---6---6---6-|
A|----11---11---11---11---11---11---11---11----7---7---7---7---7---7---7---7---|
E|-----------------------------------------------------------------------------|

e|-----------------------------------------------------------------------------|
B|-----------------------------------------------------------------------------|
G|-----------------------------------------------------------------------------|
D|-------9----9----9----9----9----9----9----9----6---6---6---6---6---6---6---6-|
A|----11---11---11---11---11---11---11---11----7---7---7---7---7---7---7---7---|
E|-----------------------------------------------------------------------------|

************************************

************************************
Suggest correction
Give kudos to tab author, rate the tab!
1 2 3 4 5
comments
print report bad tab
guest
You may want to rate the tab now too:
select rating
Wanna post a correction for this tab? Suggest correction