Oops, an error
Loading. Please wait.

Sweat Chords

58 views 6 this week
no commentswrite comment
1 2 3 4 5
3 more votes to show rating
add to favorites
launch autoscroll
font size
0
reset
transpose
0
reset
display chords
guitar tuner
Autoscroll
slow
fast
+/-
esc
set tempo
stop
Help us to improve Ultimate-Guitar.com Take our survey!
×
Author
Difficulty
Capo
novice
1st fret
This is the title track single of The Technicolors' latest EP. I'm sure I've messed up a lot of lyrics but
you get the general idea. Not sure if it's recorded with capo 1 but it makes much more sense to play it
with a capo.

[Verse]
This is the main riff played throughout the verse on acoustic guitar. Listen to the song for timing and don't
forget those percussive mutes between chords. Some slap-back delay really helps make the sound.
(Relative to capo)
e|--------------------------------|
b|--1-1--x-x--3-3-3--x-x---1------|
g|--0-0--x-x--0-0-0--x-x---2------|
d|--2-2--x-x--0-0-0--x-x---2------|
a|--3-3--x-x--2-2-2--x-x---0------|
E|------------3-3-3---------------|

[Pre-Chorus]
     F
Just call me lover
   C
we ain't got cover
    Am
The shade's just holding your
G
hand for the summer


[Chorus]
Just play these three chords throughout the whole chorus.

C       G               Am
      21                Queen of Sonora
C       G               Am
Burning like the summer sun

Repeat these three parts for the whole song.

There's a little riff between the second chorus and the next verse.
(not relative to capo)
e|----------------------------------------------------|
b|-----------6---6-----6---4-----4---4-----4---6------|
g|---------6---6-----6---6-----6---6-----6---6--------|
d|-------6---------6---------6---------6--------------|
a|----------------------------------------------------|
E|----------------------------------------------------|


There's also a little riff in the outro.
(Not relative to capo)
e|------------------------------------------------|
b|--------4-----4--6--4-----------4----4--6--4----|
g|--3--6-----6-----------6-----6----6-----------6-|
d|--------------------------6---------------------|
a|------------------------------------------------|
E|------------------------------------------------|

That's about it, practically 3 chords the whole song

Tab Legend:
x: Mute
Suggest correction
Give kudos to tab author, rate the tab!
1 2 3 4 5
comments
print report bad tab
guest
You may want to rate the tab now too:
select rating
Wanna post a correction for this tab? Suggest correction