Oops, an error
Loading. Please wait.

This Time Around Tab

13 views 1 this week
no commentswrite comment
1 2 3 4 5
3 more votes to show rating
add to favorites
launch autoscroll
font size
0
reset
how to read this tab
guitar tuner
Autoscroll
slow
fast
+/-
esc
set tempo
stop
Help us to improve Ultimate-Guitar.com Take our survey!
×
Author
Difficulty
Capo
intermediate
3rd fret
Capo 3. All tab relative to capo

[Intro]

e|---------------------------------------------------------------------------|
B|---------------------------------------------------------------------------|
G|---------------------0----------------------------0------------------------|
D|-----2---2-2---2-2------2---2-----2---2-2---2-2------2---2-----------------|
A|---3---3-----3-----3------3-----3---3-----3-----3------3-------------------|
E|---------------------------------------------------------------------------|

e|---------------------------------------------------------------------------|
B|---------------------------------------------------------------------------|
G|---------------------0----------------------------0------------------------|
D|-----2---2-2---2-2------2---2-----2---2-2---2-2------2---2-----------------|
A|---0---0-----0-----0------0-----0---0-----0-----0------0-------------------|
E|---------------------------------------------------------------------------|


[Verse 1]
       I've got the world on my shoulders
e|---------------------------------------------------------------------------|
B|---------------------------------------------------------------------------|
G|---------------------0----------------------------0------------------------|
D|-----2---2-2---2-2------2---2-----2---2-2---2-2------2---2-----------------|
A|---3---3-----3-----3------3-----3---3-----3-----3------3-------------------|
E|---------------------------------------------------------------------------|
       But I feel good all over
e|---------------------------------------------------------------------------|
B|---------------------------------------------------------------------------|
G|---------------------0----------------------------0------------------------|
D|-----2---2-2---2-2------2---2-----2---2-2---2-2------2---2-----------------|
A|---0---0-----0-----0------0-----0---0-----0-----0------0-------------------|
E|---------------------------------------------------------------------------|

       I've got the world on my shoulders
e|---------------------------------------------------------------------------|
B|---------------------------------------------------------------------------|
G|---------------------0----------------------------0------------------------|
D|-----2---2-2---2-2------2---2-----2---2-2---2-2------2---2-----------------|
A|---3---3-----3-----3------3-----3---3-----3-----3------3-------------------|
E|---------------------------------------------------------------------------|
       But I feel good all over
e|---------------------------------------------------------------------------|
B|---------------------------------------------------------------------------|
G|---------------------0----------------------------0------------------------|
D|-----2---2-2---2-2------2---2-----2---2-2---2-2------2---2-----------------|
A|---0---0-----0-----0------0-----0---0-----0-----0------0-------------------|
E|---------------------------------------------------------------------------|

[Break]

e|---------------------------------------------------------------------------|
B|---------------------0-----------------------------0-----------------------|
G|---------0-----0-------0---0-----------0-----0-------0---0-----------------|
D|-----2-----2-----2-------2---------2-----2-----2-------2-------------------|
A|---3---3-----3-----3-------------3---3-----3-----3-------------------------|
E|---------------------------------------------------------------------------|
       
e|---------------------------------------------------------------------------|
B|---------------------0-----------------------------0-----------------------|
G|---------0-----0-------0---0-----------0-----0-------0---0-----------------|
D|-----2-----2-----2-------2---------2-----2-----2-------2-------------------|
A|---0---0-----0-----0-------------0---0-----0-----0-------------------------|
E|---------------------------------------------------------------------------|

[Verse 2]
       In my eyes the stars are cornered
e|---------------------------------------------------------------------------|
B|---------------------------------------------------------------------------|
G|---------------------0----------------------------0------------------------|
D|-----2---2-2---2-2------2---2-----2---2-2---2-2------2---2-----------------|
A|---3---3-----3-----3------3-----3---3-----3-----3------3-------------------|
E|---------------------------------------------------------------------------|
       Between crimson and clover
e|---------------------------------------------------------------------------|
B|---------------------------------------------------------------------------|
G|---------------------0----------------------------0------------------------|
D|-----2---2-2---2-2------2---2-----2---2-2---2-2------2---2-----------------|
A|---0---0-----0-----0------0-----0---0-----0-----0------0-------------------|
E|---------------------------------------------------------------------------|
       They found a way to jump over
e|---------------------------------------------------------------------------|
B|---------------------------------------------------------------------------|
G|---------------------0----------------------------0------------------------|
D|-----2---2-2---2-2------2---2-----2---2-2---2-2------2---2-----------------|
A|---3---3-----3-----3------3-----3---3-----3-----3------3-------------------|
E|---------------------------------------------------------------------------|
       meanwhile I'm still getting older
e|---------------------------------------------------------------------------|
B|---------------------------------------------------------------------------|
G|---------------------0----------------------------0------------------------|
D|-----2---2-2---2-2------2---2-----2---2-2---2-2------2---2-----------------|
A|---0---0-----0-----0------0-----0---0-----0-----0------0-------------------|
E|---------------------------------------------------------------------------|

[Chorus]
      But Yououououououououo
e|---------------------------------------------------------------------------|
B|---------------------0-----------------------------0-----------------------|
G|---------0-----0-------0---0-----------0-----0-------0---0-----------------|
D|-----2-----2-----2-------2---------2-----2-----2-------2-------------------|
A|---3---3-----3-----3-------------3---3-----3-----3-------------------------|
E|---------------------------------------------------------------------------|
      Don't you know that I've been let down Shattered fluorescent clouds
e|---------------------------------------------------------------------------|
B|---------------------0-----------------------------0-----------------------|
G|---------0-----0-------0---0-----------0-----0-------0---0-----------------|
D|-----2-----2-----2-------2---------2-----2-----2-------2-------------------|
A|---0---0-----0-----0-------------0---0-----0-----0-------------------------|
E|---------------------------------------------------------------------------|
    Looking at yououououou
e|---------------------------------------------------------------------------|
B|---------------------0-----------------------------0-----------------------|
G|---------0-----0-------0---0-----------0-----0-------0---0-----------------|
D|-----2-----2-----2-------2---------2-----2-----2-------2-------------------|
A|---3---3-----3-----3-------------3---3-----3-----3-------------------------|
E|---------------------------------------------------------------------------|
Maybe I don't see the light      Maybe I'll be alright this time around
e|---------------------------------------------------------------------------|
B|---------------------0-----------------------------------------------------|
G|---------0-----0-------0---0-----------2-----------------0-----------------|
D|-----2-----2-----2-------2---------3-----3---3-------2------2---2----------|
A|---0---0-----0-----0-----------------3-----3-------0---0------0------------|
E|---------------------------------1-----------------------------------------|
        
e|---------------------------------------------------------------------------|
B|---------------------0-----------------------------0-----------------------|
G|---------0-----0-------0---0-----------0-----0-------0---0-----------------|
D|-----2-----2-----2-------2---------2-----2-----2-------2-------------------|
A|---3---3-----3-----3-------------3---3-----3-----3-------------------------|
E|---------------------------------------------------------------------------|
This time around
e|---------------------------------------------------------------------------|
B|---------------------0-----------------------------0-----------------------|
G|---------0-----0-------0---0-----------0-----0-------0---0-----------------|
D|-----2-----2-----2-------2---------2-----2-----2-------2-------------------|
A|---0---0-----0-----0-------------0---0-----0-----0-------------------------|
E|---------------------------------------------------------------------------|

At this point there's no definitive picking pattern so just mess around with strumming these chords
I attempted to line up the words with where the chords changes occur so it's easier to follow.

    So Let them tell you every-thing you want to hear
e|---------------------------------------------------------------------------|
B|---------------------------------------------------------------------------|
G|--2--------------------------4---------------------------------------------|
D|--3--------------------------5---------------------------------------------|
A|--3--------------------------5---------------------------------------------|
E|--1--------------------------3---------------------------------------------|
    Take a picture if you like       Darling
e|---------------------------------------------------------------------------|
B|--1------0--------------1--------------------------------------------------|
G|--0------0--------------2--------------------------------------------------|
D|--2------0--------------2--------------------------------------------------|
A|--3------2--------------0--------------------------------------------------|
E|---------3-----------------------------------------------------------------|
    Underneath it all I        Need to find a 
e|---------------------------------------------------------------------------|
B|---------------------------------------------------------------------------|
G|--2--------------------------4---------------------------------------------|
D|--3--------------------------5---------------------------------------------|
A|--3--------------------------5---------------------------------------------|
E|--1--------------------------3---------------------------------------------|
    Place to Put  my feet back on the ground    Don't you know that I'm
e|-----------------------------0------1--------------------------------------|
B|--1--------0-------1---------0------3---------1----------------------------|
G|--0--------0-------2---------0------2---------0----------------------------|
D|--2--------0-------2---------2------0---------2----------------------------|
A|--3--------2-------0---------2----------------3----------------------------|
E|-----------3-----------------0---------------------------------------------|
    Missing it        Missing it
e|---------------------------------------------------------------------------|
B|---------------------------------------------------------------------------|
G|--2-----------------4------------------------------------------------------|
D|--3-----------------5------------------------------------------------------|
A|--3-----------------5------------------------------------------------------|
E|--1-----------------3------------------------------------------------------|

At this point it's back to the verse with the same chord shapes but he lightly strums. The riff from the
chorus comes in halfway through as well and continues through the outro. Not much other guitar stuff going on
Suggest correction
Give kudos to tab author, rate the tab!
1 2 3 4 5
comments
print report bad tab
guest
You may want to rate the tab now too:
select rating
Wanna post a correction for this tab? Suggest correction