Oops, an error
Loading. Please wait.

Where Will We Go Tab

4 views 1 this week
no commentswrite comment
1 2 3 4 5
3 more votes to show rating
add to favorites
launch autoscroll
font size
0
reset
how to read this tab
guitar tuner
Autoscroll
slow
fast
+/-
esc
set tempo
stop
Help us to improve Ultimate-Guitar.com Take our survey!
×
Author
Difficulty
intermediate

e|---------11-----------11b13r11--8-------------------------------------------------------|
B|---11b13----pbr11--9--------------11-13--11b13r11-9---------9-11b13r11-9----9-----------|
G|----------------------------------------------------10-8-10--------------10-------------|
D|----------------------------------------------------------------------------------------|
A|----------------------------------------------------------------------------------------|
E|----------------------------------------------------------------------------------------|

e|---------11-----------11b13-11b13r11--8b9r8--------------------13p11p8-13p11p8---------------|
B|---11b13----pbr11--9------------------------11-9-11b13-11b13--------------------11b13-11b13--|
G|---------------------------------------------------------------------------------------------|
D|---------------------------------------------------------------------------------------------|
A|---------------------------------------------------------------------------------------------|
E|---------------------------------------------------------------------------------------------|


************************************

| r   Release
| b   Bend
| pbr Pre-bend release

************************************
Suggest correction
Give kudos to tab author, rate the tab!
1 2 3 4 5
comments
print report bad tab
guest
You may want to rate the tab now too:
select rating
Wanna post a correction for this tab? Suggest correction