Oops, an error
Loading. Please wait.

Down River Tab

version 3
version 3

Whole song

1,905 views 3 this week
1 commentread comment
1 2 3 4 5
accurate
x 3
add to favorites
launch autoscroll
font size
0
reset
how to read this tab
guitar tuner
Tab Pro tools
  • play this tab
  • loop segment
  • change instrument
  • show fretboard
  • metronome
×
Best way to learn
"Down River"
Autoscroll
slow
fast
+/-
esc
set tempo
stop
Contributor
-------------------------------------------------------------------------------
                             Down River - The Temper Trap
-------------------------------------------------------------------------------
Tabbed by: SorryImAwesome..
Email: sorryimawesome@hotmail.com

Tuning: standard (EADGBe)

INTRO: 
e|---------------------------------------|      |----------------------------------------|
B|---------------------------------------|      |----------------------------------------|
G|-11~-----11\4~----4/11~----11\4~----4/-|      |----11~-----11~-----11\--4~----4~----4/-|
D|-0~------0--0~----0-0~-----0--0~----0--|      |-------0~------0~----------0~----0~-----|
A|-x-------x--x-----x-x------x--x-----x--|      |----------------------------------------|
E|-10~-----10\3~----3/10~----10\3~----3/-| then |-10~-----10~-----10~--\3~----3~----3~-/-|2x


VERSE: Guitar 1 (I tried to tab the strumming pattern)
e|-----------------------------------------------|
B|-----------------------------------------------|
G|-11--111111--11--111111--11\4--444--4--444--4/-|
D|-0---0-0-0---0---0-0-0---0--0--000--0--000--0--|
A|-x---x-x-x---x---x-x-x---x--x--xxx--x--xxx--x--|
E|-10--101010--10--101010--10\3--333--3--333--3/-|2x

e|----------------------------------------------------------------------------------|
B|----------------------------------------------------------------------------------|
G|-7--777--7--777--7\6--666--6--666--6/9--999--9--999--9/12--121212--12-121212--12\-|
D|-0--000--0--000--0-0--000--0--000--0-0--000--0--000--0-0---0-0-0---0--0-0--0--0---|
A|-x--xxx--x--xxx--x-x--xxx--x--xxx--x-x--xxx--x--xxx--x-x---x-x-x---x--x-x-x---x---|
E|-7--777--7--777--7\5--555--5--555--5/9--999--9--999--9/12--121212--12-121212--12\-|

VERSE: Guitar 2 (comes in when ^^^ is played)
e|---------------------------------------------------------7~----------14\-|
B|-------7~----------------5~-----------------8~-----------8~----------12\-|
G|-----7~----------------6~-----------------9~-------------9~----------12\-|
D|---9~----------------7~----------------11~-------------------------------|
A|-------------------------------------------------------------------------|
E|-------------------------------------------------------------------------|

e|-----------------------------------------|
B|-10~----10\3~----3/10~----10-10\3~----3/-|
G|-11~----11\4~----4/11~----11-11\4~----4/-|
D|-0------0--0-----0-0------0--0--0-----0--|
A|-x------x--x-----x-x------x--x--x-----x--|
E|-10~----10\3~----3/10~----10-10\3~----3/-|2x

PRE-CHORUS: Guitar 1
e|------------------------------------------------------------------------------------|
B|------------------------------------------------------------------------------------|
G|----11~-----11~-----11~-----11~----11~-------11~-----11~-----11~---11~-------12--14-|
D|-------0~------0~------0~------0~-----0~--------0~------0~------------0~------------|
A|------------------------------------------------------------------------------------|
E|-10~-----10~-----10~-----10~-----9~-----9/10~-----10~-----10~---10~-----10/12--14---|

CHORUS: Guitar 1 (I tried tabbing the strumming pattern again)
e|---------------------------------------------------------------------------------|
B|-7--777--7--777--7-7-7--777--7--777--7-7\5--555--5--555--5-5/8--888--8--888--8-8-|
G|-7--777--7--777--7-7-7--777--7--777--7-7\6--666--6--666--6-6/9--999--9--999--9-9-|
D|-0--000--0--000--0-0-0--000--0--000--0-0-0--000--0--000--0-0-0--000--0--000--0-0-|
A|-x--xxx--x--xxx--x-x-x--xxx--x--xxx--x-x-x--xxx--x--xxx--x-x-x--xxx--x--xxx--x-x-|
E|-7--777--7--777--7-7-7--777--7--777--7-7\5--555--5--555--5-5/9--999--9--999--9-9-|

Pre-Chorus 1x
Chorus 1x
Intro 1x
Verse 3x
Pre-Chorus 1x
Chorus 1x
Pre-Chorus 1x
Chorus 1x

OUTRO: 
e|----------------------------------------------------------------------------|
B|-10-101010-10-101010-10\3-333-3-333-3/10-101010-10-101010-10\3-333-3-333-3--|
G|-11-111111-11-111111-11\4-444-4-444-4/11-111111-11-111111-11\4-444-4-444-4--|
D|-0--0-0-0--0--0-0-0--0--0-000-0-000-0-0--0-0-0--0--0-0-0--0--0-000-0-000-0--|
A|-x--x-x-x--x--x-x-x--x--x-xxx-x-xxx-x-x--x-x-x--x--x-x-x--x--x-xxx-x-xxx-x--|
E|-10-101010-10-101010-10\3-333-3-333-3/10-101010-10-101010-10\3-333-3-333-3/-|

e|-------------------------------------------------------------------|
B|-7-777-7-777-7\5-555-5-555-5/8-888-8-888-8/12-121212-12-121212-12\-|
G|-7-777-7-777-7\6-666-6-666-6/9-999-9-999-9/12-121212-12-121212-12\-|
D|-0-000-0-000-0-0-000-0-000-0-0-000-0-000-0-0--0-0-0--0--0-0-0--0---|
A|-x-xxx-x-xxx-x-x-xxx-x-xxx-x-x-xxx-x-xxx-x-x--x-x-x--x--x-x-x--x---|
E|-7-777-7-777-7\5-555-5-555-5/9-999-9-999-9/12-121212-12-121212-12\-|the entire outro, 2x

End on:
e|-----|
B|-10~-|
G|-11~-|
D|-0~--|
A|-x---|
E|-10~-|

************************************

| /   slide up
| \   slide down
| h   hammer-on
| p   pull-off
| ~   vibrato
| +   harmonic
| x   Mute note
| b   Bend
| pb  Pre-bend
| br  Bend release
| pbr Pre-bend release
| brb Bend release bend

************************************
comments
We did not receive enough feedback on this tab! Please rate:
print report bad tab
1 2 3 4 5
1 comment total.
0 reply
benwillreid wrote on January 16 2012, 03:17 pm

I think in the Verse it's |10-x-0-12| as oppose to |12-x-0-12| After the |9-x-0-9| but apart from that the tab is spot on :D Well done and thanks!

I want to post or [tab]
guest
You may want to rate the tab now too:
select rating
Please do not post tabs as comments. Select "correction" instead!