Oops, an error
Loading. Please wait.

Drum Song Bass Tab

1,794 views 1 this week
no commentswrite comment
1 2 3 4 5
please rate
add to favorites
launch autoscroll
font size
0
reset
guitar tuner
Autoscroll
slow
fast
+/-
esc
set tempo
stop
Help us to improve Ultimate-Guitar.com Take our survey!
×
Author
-------------------------------------------------------------------------------
		  Drum Song - The Temper Trap
-------------------------------------------------------------------------------

 Tabbed by:dvanwyk
 Email:dustinvanwyk@yahoo.com

 Tuning:Standard

 Intro x2 (0.22)
G|------------------------------------------------------------------------|
D|------------------------------------------------------------------------|
A|-----------/7777------------/7777------------/77777------------/77777---|
E|0-00-0-0-0-------0-00-0-0-0-------0-00-0-0-0--------0-00-0-0-0----------|

  x3
G|-----4-2-55----------|
D|--------------5------|
A|2-22--------3--------|
E|---------------------|

G|-----4-2-55----|
D|---------------|
A|2-22-----------|
E|---------------|


G|------------------------------------------------------------------------------------|
D|------------------------------------------------------------------------------------|
A|-----------------------------------------------------------------------------5-5-5--|
E|0-0-0--0-0-0--0-0-0--0-0-0--0-0-0--0-0-0--0-0-0--0-0-0--7-7-7--7-7-7--5-5-5---------|

G|-------------------------------------------------------|
D|-------------------------------------------------------|
A|------------------------------------------------5-5-5--|
E|0-0-0--0-0-0--0-0-0--0-0-0--7-7-7--7-7-7--5-5-5--------|

 Pause

 (1.06)
G|------------------------------|
D|------------------------------|
A|--------------------5-5-5-----|
E|7-7-7-7-7-7-7-5-5-5-----------|

G|-------------------------------------------------------|
D|-------------------------------------------------------|
A|------------------------------------------------5-5-5--|
E|0-0-0--0-0-0--0-0-0--0-0-0--7-7-7--7-7-7--5-5-5--------|

G|----------------------------------------------------------------|
D|----------------------------------------------------------------|
A|-------------------------------------------------------/777-----|
E|0-0-0--0-0-0--0-0-0--0-0-0--0-0-0--0-0-0--0-0-0--0-0-0----------|

G|------------------------------------------------------------------------|
D|------------------------------------------------------------------------|
A|-----------/7777------------/7777------------/77777------------/77777---|
E|0-00-0-0-0-------0-00-0-0-0-------0-00-0-0-0--------0-00-0-0-0----------|

 x3
G|-----4-2-55----------|
D|--------------5------|
A|2-22--------3--------|
E|---------------------|

G|-----4-2-55----|
D|---------------|
A|2-22-----------|
E|---------------|

G|------------------------------------------------------------------------------------|
D|------------------------------------------------------------------------------------|
A|-----------------------------------------------------------------------------5-5-5--|
E|0-0-0--0-0-0--0-0-0--0-0-0--0-0-0--0-0-0--0-0-0--0-0-0--7-7-7--7-7-7--5-5-5---------|

G|-------------------------------------------------------|
D|-------------------------------------------------------|
A|------------------------------------------------5-5-5--|
E|0-0-0--0-0-0--0-0-0--0-0-0--7-7-7--7-7-7--5-5-5--------|


 Pause

 x4 (2.02)
G|-------------------------|
D|-------------------------|
A|77777777777777-555-------|
E|-------------------------|

G|--------------------------------------|
D|--------------------------------------|
A|------------------7777777777777777----|
E|77777777-55555555---------------------|

G|--------------------------------------|
D|--------------------------------------|
A|------------------7-7-7-7--7-7-7-7----|
E|77777777-55555555---------------------|

 x4
G|----------------------|
D|----------------------|
A|7-7-7-----7-7-7-5-----|
E|------7/--------------|

x3
G|-----4-2-55----------|
D|--------------5------|
A|2-22--------3--------|
E|---------------------|

G|-----4-2-55----|
D|---------------|
A|2-22-----------|
E|---------------|

G|------------------------------------------------------------------------------------|
D|------------------------------------------------------------------------------------|
A|-----------------------------------------------------------------------------5-5-5--|
E|0-0-0--0-0-0--0-0-0--0-0-0--0-0-0--0-0-0--0-0-0--0-0-0--7-7-7--7-7-7--5-5-5---------|

G|-------------------------------------------------------|
D|-------------------------------------------------------|
A|------------------------------------------------5-5-5--|
E|0-0-0--0-0-0--0-0-0--0-0-0--7-7-7--7-7-7--5-5-5--------|
Suggest correction
What's this?
You can suggest a correction to this tab. Community and Mods will review your correction and vote to approve or reject it.
comments
We did not receive enough feedback on this tab! Please rate:
print report bad tab
1 2 3 4 5
guest
You may want to rate the tab now too:
select rating
Please do not post tabs as comments. Select "correction" instead!