Oops, an error
Loading. Please wait.

Fools Bass Tab

857 views 1 this week
no commentswrite comment
1 2 3 4 5
please rate
add to favorites
launch autoscroll
font size
0
reset
guitar tuner
Autoscroll
slow
fast
+/-
esc
set tempo
stop
Help us to improve Ultimate-Guitar.com Take our survey!
×
Author
-------------------------------------------------------------------------------
			     Fools - The Temper Trap
-------------------------------------------------------------------------------

 Tabbed by:dvanwyk
 Email:dustinvanwyk@yahoo.com

 Tuning:Standard

 Verse (0.23)
G|--------------------------------------------------|
D|------------------2~----------------------2~------|
A|5~----2~----------------5~----2~--------0---------|
E|------------0~----------------------0~------------|

 Chorus
G|--------------------------------------------------|
D|--------------------------------------------------|
A|5~----2~----------------5~----2~----0~------------|
E|------------0~----3~----------------------3~------|

 Post-Chorus 
G|----------------------9-7-------------------------------------------|
D|------7-5---------7/9-----9------------------2-----7-5--------------|
A|5~--------7------------------5~----2~--0-2-5-----------7---5-7------|
E|------------7~---------------------------------0~--------0-----7----|

 Verse

 Chorus 

 Pause


 Bridge x4 (3.16)
G|------------------------------------------------------------|
D|------------------------------------------------------------|
A|5-5-5-55-55-5--5-5-5-55-55-5--2-2-2-22-22-2--0-0-0-00-00-0--|
E|------------------------------------------------------------|

 Chorus x5
G|------------------------------------------------------------|
D|------------------------------------------------------------|
A|5-5-5-55-55-5--5-5-5-55-55-5--2-2-2-22-22-2--0-0-0-00-00-0--|
E|------------------------------------------------------------|

 
G|-------------|
D|-------------|
A|5~-----------|
E|-------------|
Suggest correction
Give kudos to tab author, rate the tab!
1 2 3 4 5
comments
print report bad tab
guest
You may want to rate the tab now too:
select rating
Please do not post tabs as comments. Select "correction" instead!