Oops, an error
Loading. Please wait.

Love Lost Tab

version 3
version 3

Whole song

Interactive

2,389 views 1 this week
no commentswrite comment
1 2 3 4 5
please rate
add to favorites
launch autoscroll
font size
0
reset
how to read this tab
guitar tuner
Autoscroll
slow
fast
+/-
esc
set tempo
stop
Help us to improve Ultimate-Guitar.com Take our survey!
×
Author
-------------------------------------------------------------------------------
                             The Temper Trap - Love Lost
-------------------------------------------------------------------------------
Tabbed by: Kable95

Tuning: Standard

 Intro:
Bm G D D

 Verse:
No Guitar

 Chorus 1:
|-7-7-7-7-7-7-7-7-|-3-3-3-3-3-3-3-3-|-10-10-10-10-10-10-10-10-|-12-12-12-12-12-12-12-12-|
|-7-7-7-7-7-7-7-7-|-3-3-3-3-3-3-3-3-|-10-10-10-10-10-10-10-10-|-10-10-10-10-10-10-10-10-|
|-7-7-7-7-7-7-7-7-|-4-4-4-4-4-4-4-4-|-11-11-11-11-11-11-11-11-|-11-11-11-11-11-11-11-11-|
|-9-9-9-9-9-9-9-9-|-5-5-5-5-5-5-5-5-|-12-12-12-12-12-12-12-12-|-12-12-12-12-12-12-12-12-|
|-----------------|-----------------|-------------------------|-------------------------|
|-7-7-7-7-7-7-7-7-|-3-3-3-3-3-3-3-3-|-10-10-10-10-10-10-10-10-|10-10-10-10-10-10-10-10--|

|-14-14-14-14-14-14-14-14-|-12-12-12-12-12-12-12-12-|
|-10-10-10-10-10-10-10-10-|-10-10-10-10-10-10-10-10-|
|-11-11-11-11-11-11-11-11-|-11-11-11-11-11-11-11-11-|
|-12-12-12-12-12-12-12-12-|-12-12-12-12-12-12-12-12-|
|-------------------------|-------------------------|
|-12-12-12-12-12-12-12-12-|-12-12-12-12-12-12-12-12-|

|-10-10-10-10-10-10-10-10-|-12-12-12-12-12-12-12-12-|
|-10-10-10-10-10-10-10-10-|-10-10-10-10-10-10-10-10-|
|-11-11-11-11-11-11-11-11-|-11-11-11-11-11-11-11-11-|
|-12-12-12-12-12-12-12-12-|-12-12-12-12-12-12-12-12-|
|-------------------------|-------------------------|
|-12-12-12-12-12-12-12-12-|-12-12-12-12-12-12-12-12-|

 Post-Chorus 1:
|-----------------|-----------------|-2---------------|-----------------|
|-----------------|-----------------|-3---------------|-----------------|
|-----------------|-----------------|-2---------------|-----------------|
|-----------------|-----------------|-0---------------|---------------9-|
|-----------------|-----------------|-----------------|-----------------|
|-----------------|-----------------|-----------------|-----------------|

|-7---------------|-3---------------|-2-------------2h3-|-2h3--2----------|
|---7-------------|---3-------------|-3-------------3---|-3----3----------|
|-----7-----------|-----4-----------|-2-----------------|------2----------|
|-------9---------|-------5---------|-0-----------------|------0----------|
|-----------------|-----------------|-------------------|-----------------|
|-----------------|-----------------|-------------------|-----------------|

 Verse:
No Guitar

 Chorus:
Same as chorus 1
 
 Post-Chorus 2:
|-----------------|-----------------|-2---------------|-----------------|
|-----------------|-----------------|-3---------------|-----------------|
|-----------------|-----------------|-2---------------|-----------------|
|-----------------|-----------------|-0---------------|-----------------|
|-----------------|-----------------|-----------------|-----------------|
|-----------------|-----------------|-----------------|-----------------|

|-----------------|-----------------|-----------------|-----------------|
|-----------------|-----------------|-----------------|-----------------|
|-----------------|-----------------|-----------------|-----------------|
|-----------------|-----------------|-----------------|---------------9-|
|-----------------|-----------------|-----------------|-----------------|
|-----------------|-----------------|-----------------|-----------------|

|-7---------------|-3---------------|-2---------------|-----------------|
|---7-------------|---3-------------|-3---------------|-----------------|
|-----7-----------|-----4-----------|-2---------------|-----------------|
|-------9-------5-|-------5---------|-0---------------|-----------------|
|-----------------|-----------------|-----------------|-----------------|
|-----------------|-----------------|-----------------|-----------------|

************************************

| /   slide up
| \   slide down
| h   hammer-on
| p   pull-off
| ~   vibrato
| +   harmonic
| x   Mute note
| b   Bend
| pb  Pre-bend
| br  Bend release
| pbr Pre-bend release
| brb Bend release bend

************************************
Suggest correction
What's this?
You can suggest a correction to this tab. Community and Mods will review your correction and vote to approve or reject it.
comments
We did not receive enough feedback on this tab! Please rate:
print report bad tab
1 2 3 4 5
guest
You may want to rate the tab now too:
select rating
Please do not post tabs as comments. Select "correction" instead!