Oops, an error
Loading. Please wait.

Rest Bass Tab

1,977 views 1 this week
no commentswrite comment
1 2 3 4 5
excellent!
x 1
add to favorites
launch autoscroll
font size
0
reset
guitar tuner
Tab Pro tools
  • play this tab
  • loop segment
  • change instrument
  • show fretboard
  • metronome
Autoscroll
slow
fast
+/-
esc
set tempo
stop
Contributor
-------------------------------------------------------------------------------
			     Rest - The Temper Trap
-------------------------------------------------------------------------------

 Tabbed by:dvanwyk
 Email:dustinvanwyk@yahoo.com

 Tuning:Standard

 Chorus (0.37)
G|---------------------------------------------------------------------------|
D|---------------------------------------------------------------------------|
A|22222222222222222222222222222222-----777-5-----777-5-----777-5-----777-5---|
E|---------------------------------000-------000-------000-------000---------|

G|---------------------------------------------------------------------------|
D|---------------------------------------------------------------------------|
A|-------------------------------------777-5-----777-5-----777-5-----777-5---|
E|33333333333333333333333333333333-000-------000-------000-------000---------|

G|----------|
D|----------|
A|5~--------|
E|----------|

 Verse (1.12)
G|999-77--------999-77--------999-77-----------|
D|---------------------------------------------|
A|---------------------------------------------|
E|---------------------------------------------|

 Chorus x2

G|----------|
D|----------|
A|5~--------|
E|----------|

 x2
G|---------------------------------------------------------------|
D|---------------------------------------------------------------|
A|5555555555555555555555-5h77-22222222222222222222222222222222---|
E|---------------------------------------------------------------|

 Chorus
G|--------------------------------------------------------------------------------|
D|----7/999-----7/999----7/999-----2/999------------------------------------------|
A|222-------222-------22-------222-----------777-5-----777-5-----777-5-----777-5--|
E|---------------------------------------000-------000-------000-------000--------|

G|-------------------------------------------------------------------------------|
D|----/555-----/555-----/555-----/555--------------------------------------------|
A|----------------------------------------777-5-----777-5-----777-5-----777-5----|
E|333------333------333------333------000-------000-------000-------000----------|

G|---------------------------------------------------------------------------|
D|---------------------------------------------------------------------------|
A|22222222222222222222222222222222-----777-5-----777-5-----777-5-----777-5---|
E|---------------------------------000-------000-------000-------000---------|

G|-----------------------------------------------------------------------|
D|----/555-----/555-----/555-----/555------------------------------------|
A|-----------------------------------------------------------------------|
E|333------333------333------333------00000000000000000000000000000000---|


G|----------|
D|----------|
A|5~--------|
E|----------|
comments
We did not receive enough feedback on this tab! Please rate:
print report bad tab
1 2 3 4 5
I want to post or [tab]
guest
You may want to rate the tab now too:
select rating
Please do not post tabs as comments. Select "correction" instead!