Oops, an error
Loading. Please wait.

Resurrection Bass Tab

1,141 views 6 this week
no commentswrite comment
1 2 3 4 5
please rate
add to favorites
launch autoscroll
font size
0
reset
guitar tuner
Autoscroll
slow
fast
+/-
esc
set tempo
stop
Help us to improve Ultimate-Guitar.com Take our survey!
×
Author
-------------------------------------------------------------------------------
		 Resurrection - The Temper Trap
-------------------------------------------------------------------------------

 Tabbed by:dvanwyk
 Email:dustinvanwyk@yahoo.com

 Tuning:Standard


 Chorus (1.47)
G|---------------------------------------------------------------------------------|
D|------2~--------2~--------2~--------2~----------------------------2~--------2~---|
A|----------------------------------------------5~--------5~-----------------------|
E|0-2-0-----0-2-0-----0-3-3-----0-3-3-----0-3-3-----0-5-5-----0-2-0-----0-2-0------|


 Bridge (3.27 - 3.58)
G|--------------------|
D|--2--0--4-0-2-------|
A|--------------------|
E|0-------------------|

G|----------------------|
D|----------------------|
A|3~--------------------|
E|------3~----5~--------|

G|--------------------|
D|--2--0--4-0-2-------|
A|--------------------|
E|0-------------------|

G|----------------------|
D|----------------------|
A|3~--------------------|
E|------3~----5~--------|

 x8
G|----------------------------------------|
D|----------------------------------------|
A|77777777-22222222-33333333--------------|
E|---------------------------33333-2-0----|

 x3
G|--------------------|
D|--2--0--4-0-2-------|
A|--------------------|
E|0-------------------|

G|--------|
D|--------|
A|--------|
E|0~------|
Suggest correction
Give kudos to tab author, rate the tab!
1 2 3 4 5
comments
print report bad tab
guest
You may want to rate the tab now too:
select rating
Please do not post tabs as comments. Select "correction" instead!