Oops, an error
Loading. Please wait.

Science Of Fear Tab

version 1
version 1

Whole song

14,751 views 3 this week
2 commentsread comments
1 2 3 4 5
excellent!
x 16
add to favorites
launch autoscroll
font size
0
reset
how to read this tab
guitar tuner
Tab Pro tools
  • play this tab
  • loop segment
  • change instrument
  • show fretboard
  • metronome
×
Best way to learn
"Science Of Fear"
Autoscroll
slow
fast
+/-
esc
set tempo
stop
Contributor
Difficulty
novice
The Temper Trap - Science of Fear (Tab & Chords)
Tabbed by: Adam0209M

Intro

Bm

   E E E E E E E E   E E E E E E E E   E E E E E E E E   E E E E E E E E
E|-----------------|-----------------|-----------------|-----------------|
B|-7---7-----7---7-|---7-7-------7---|-7---7-----7---7-|---7-7-------7---|
G|-7---7-----7---7-|---7-7-------7---|-7---7-----7---7-|---7-7-------7---|
D|-0---0-----0---0-|---0-0-------0---|-0---0-----0---0-|---0-0-------0---|
A|-----------------|-----------------|-----------------|-----------------|
E|-7---7-----7---7-|---7-7-------7---|-7---7-----7---7-|---7-7-------7---|

G

   E E E E E E E E   E E E E E E E E   E E E E E E E E   E E E E E E E E
E|-----------------|-----------------|-----------------|-----------------|
B|-3---3-----3---3-|---3-3-------3---|-3---3-----3---3-|---3-3-------3---|
G|-4---4-----4---4-|---4-4-------4---|-4---4-----4---4-|---4-4-------4---|
D|-0---0-----0---0-|---0-0-------0---|-0---0-----0---0-|---0-0-------0---|
A|-----------------|-----------------|-----------------|-----------------|
E|-3---3-----3---3-|---3-3-------3---|-3---3-----3---3-|---3-3-------3---|


Bm
Brakes on, brakes on,
The car is running empty
Brakes on, brakes on
The car is runnin' empty

G
Downhill, head on,
this crash is comin' slowly
Downhill, Head on
This crash is comin' slowly

Em
Move,

     G                                  Bm
Or watch the slow death of your way of life

                      G
There's a science to fear

               Em
It plagues my mind

                  G
And it keeps us right here

                 Bm
And it keeps us here

(Drum fill for 2 bars)

Bm
My ears, my eyes
My brain is slowly bustin'
Black smoke, red sky
The television's sayin'

G
Downhill,
Head on another crash is comin'
Downhill,
Head on another crash is comin'

Em
Move,

     G                             Bm
Or watch the murder of your way of life

                      G
There's a science to fear

               Em
It plagues my mind

                 G
And it keeps us right here

                 Bm
And the less we know

             G
The more we sit still

                      Em
My baby's stuck on a road

                G
That leads to nowhere

                               Bm
Nowhere, nowhere, nowhere, nowhere..


   E E E E E E E E   E E E E E E E E   E E E E E E E E   E E E E E E E E
E|---------------0-|-----------------|---------------0-|-----------------|
B|-----3-------3---|---3-------3-----|-----3-------3---|---3-------3-----|
G|-4---------4-----|-------4---------|-4---------4-----|-------4---------|
D|-----------------|-----------------|-----------------|-----------------|
A|-----------------|-----------------|-----------------|-----------------|
E|-----------------|-----------------|-----------------|-----------------|

   E E E E E E E E   E E E E E E E E   E E E E E E E E   E E E E E E E E
E|---------------0-|-----------------|---------------0-|-----------------|
B|-----3-------3---|---3-------3-----|-----3-------3---|---3-------3-----|
G|-0---------0-----|-------0---------|-0---------0-----|-------0---------|
D|-----------------|-----------------|-----------------|-----------------|
A|-----------------|-----------------|-----------------|-----------------|
E|-----------------|-----------------|-----------------|-----------------|

   E E E E E E E E   E E E E E E E E   E E E E E E E E   E E E E E E E E
E|---------------0-|-----------------|---------------0-|-----------------|
B|-----3-------3---|---3-------3-----|-----3-------3---|---3-------3-----|
G|-4---------4-----|-------4---------|-4---------4-----|-------4---------|
D|-----------------|-----------------|-----------------|-----------------|
A|-----------------|-----------------|-----------------|-----------------|
E|-----------------|-----------------|-----------------|-----------------|

   E E E E E E E E   E E E E E E E E   E E E E E E E E   E E E E E E E E
E|---------------0-|-----------------|---------------0-|-----------------|
B|-----3-------3---|---3-------3-----|-----3-------3---|---3-------3-----|
G|-0---------0-----|-------0---------|-0---------0-----|-------0---------|
D|-----------------|-----------------|-----------------|-----------------|
A|-----------------|-----------------|-----------------|-----------------|
E|-----------------|-----------------|-----------------|-----------------|


Bm

Brakes on,
Brakes on,
Brakes on,
Brakes on,
Brakes on.

                   G
There's a science to fear

               Em
It plagues my mind

                 G
And it keeps us right here

                 Bm
And the less we know

             G
The more we sit still, sit still

                      Em
My baby's stuck on a road

                G
That leads to nowhere

                              Bm
Nowhere, nowhere, nowhere, nowhere...

(drum fill ends song)

______

Chords
______

   Bm  G   Em
E|-------------|
B|-7---3---0---|
G|-7---4---0---|
D|-0---0---2---|
A|-------------|
E|-7---3---0---|


E = Eight Note (to show the rhythm of the guitar) I know it is probably in 16 beat, but 
is just for rhythm purposes :)

Thank you for looking at the tab, I figured this out by a live performance and by Ear, 
sorry if there are any daft mistakes. Any corrections please tell me :)

Adam.
comments
print report bad tab
2 comments total.
+2 reply
B-Totz wrote on December 5 2010, 04:21 pm

beautiful, thank you

+2 reply
jacktyrrell95 wrote on June 23 2013, 07:35 am

Fantastic. Well done and thank you!

I want to post or [tab]
guest
You may want to rate the tab now too:
select rating
Please do not post tabs as comments. Select "correction" instead!