Oops, an error
Loading. Please wait.

Science Of Fear Tab

version 3
version 3

Whole song

785 views 6 this week
no commentswrite comment
1 2 3 4 5
3 more votes to show rating
add to favorites
launch autoscroll
font size
0
reset
how to read this tab
guitar tuner
Autoscroll
slow
fast
+/-
esc
set tempo
stop
Help us to improve Ultimate-Guitar.com Take our survey!
×
Author
Difficulty
novice
The Temper Trap - Science of fear
Tuning: Standard

NOTE:
Some parts might not be that accurate but its the best i could do. All corrections are welcome.


Intro/Verse:

------------------------------------------------|
------------------------------------------------|
------------------------------------------------|
--4--4------4-4-4-4------4---4-4-4--------- x 2-|
--2--2------2-2-2-2------2---2-2-2--------------|
------------------------------------------------|


-----------------------------------------------------------|
-----------------------------------------------------------|
-----------------------------------------------------------|
-----------------------------------------------------------|
--5-5----5-5-5-5------5---5-5-5----------------------------| x2
--3-3----3-3-3-3------3---3-3-3----------------------------|


and keep repeating

Solo 1:

2:00

tremolo picking

---------------------------------------------------|
----0----12--10--8-7-10-----0------------ x 3------|
---------------------------------------------------|
---------------------------------------------------|
---------------------------------------------------|
---------------------------------------------------|

Fade with:

------------------------------------------------------------------------|
--0---------------------------------------------------------------------|
------------------------------------------------------------------------|
------------------------------------------------------------------------|
------------------------------------------------------------------------|
------------------------------------------------------------------------|


Solo 2:

2:30


Palm mutted


---------------0---------------------------------0-------------------|
-----3-------3------3-------3----------3-------3------3-------3------|
-4---------4------------4----------4---------4------------4----------|
---------------------------------------------------------------------|
---------------------------------------------------------------------|
---------------------------------------------------------------------|

---------------0---------------------------------0------------------|
-----3-------3------3-------3----------3-------3------3-------3-----|
-0---------0------------0----------0---------0------------0---------|
--------------------------------------------------------------------|
--------------------------------------------------------------------|
--------------------------------------------------------------------|


---------------0---------------------------------0-------------------|
-----3-------3------3-------3----------3-------3------3-------3------|
-4---------4------------4----------4---------4------------4----------|
---------------------------------------------------------------------|
---------------------------------------------------------------------|
---------------------------------------------------------------------|

---------------0---------------------------------0------------------|
-----3-------3------3-------3----------3-------3------3-------3-----|
-0---------0------------0----------0---------0------------0---------|
--------------------------------------------------------------------|
--------------------------------------------------------------------|
--------------------------------------------------------------------|


Solo 3:

2:50

All tremolo picking

----------------------------------------------------------|
----------------------------------------------------------|
----------------------------------------------------------|
--12--14-12---14-12---14-12--14-16------------------------|
----------------------------------------------------------|
----------------------------------------------------------|


-----------------------------------------------------------------------|
-----------------------------------------------------------------------|
-----------------------------------------------------------------------|
-9--5-4-5-4-----9--5-4-5-4------9--11--9--11-12-14-16------------------|
-----------------------------------------------------------------------|
-----------------------------------------------------------------------|
Suggest correction
Give kudos to tab author, rate the tab!
1 2 3 4 5
comments
print report bad tab
guest
You may want to rate the tab now too:
select rating
Wanna post a correction for this tab? Suggest correction