Oops, an error
Loading. Please wait.

So Much Sky chords

475 views 9 this week
no commentswrite comment
1 2 3 4 5
x 3
add to favorites
×
Save as Personal and add changes to this tab that will be seen only by you. Learn more ›
×
You can save this tab as Personal to edit and correct it or add notes. All changes will be seen only by you. Learn more »
launch autoscroll
font size
0
reset
transpose
0
reset
display chords
guitar tuner
edit
Autoscroll
slow
fast
+/-
esc
set tempo
stop
Author
Strumming
There is no strumming pattern for this song yet. and get +5 IQ
[Intro]

(C)   (Am)  (Em)
 Oh-ay-oh-ay-ooh
(C)   (Am)  (Em)
 Oh-ay-oh-ay-ooh
C     Am    Em
Oh-ay-oh-ay-ooh
C     Am    Em  G
Oh-ay-oh-ay-ooh-ooh

[Verse]

C      Em     Am     Dm
 Misty morning dusty ground
C             Em   Am        Dm
 The world in si-i-lence all around
C       Em        Am          Dm 
 Little girl wakes dressed in mud
C              Em  Am           Dm 
 Arms reaching o-o-out touching God
F           G
 She told me a story   

e|-----------------|
B|-6-------5--8----|
G|-----------------|
D|-----------------|
A|-----------------|
E|-----------------|


[Pre-Chorus]

Am                        F
 In our father's house we gather
              C      G
Where there is so much sky
Am                         F
 And in the distance is forever
              C      G   
Where there is so much sky


[Chorus]

 C     Am    Em
(Oh-ay-oh-ay-ooh) Where all the wild ones are born

 C     Am    Em (G)                G
(Oh-ay-oh-ay-ooh-ooh) And heaven stretches on and on

 C     Am    Em
(Oh-ay-oh-ay-ooh) We run free we run strong

 C     Am    Em (G)      G
(Oh-ay-oh-ay-ooh-ooh) So much sky

C Em Am Dm 
e|--------------|-------------|-------------|--------------|
B|--------8-----|-------8-----|--------5----|---------6----|
G|--------9-----|-------9-----|----5---5----|-------5-5----|
D|----10--------|----9--------|------7-7----|----5h7--7----|
A|--------------|-------------|-------------|--------------|
E|--------------|-------------|-------------|--------------|

[Verse]

C           Em    Am             Dm
 And if the clouds should gather hope
C                 Em   Am          Dm
 Well just let it ra-a-ain make it pour
F           G
 She told me a story   
e|-----------------|
B|-6-------5--8----|
G|-----------------|
D|-----------------|
A|-----------------|
E|-----------------|

[Pre-Chorus]

Am                        F
 In our father's house we gather
              C      G
Where there is so much sky
Am                         F
 And in the distance is forever
              C      G   
Where there is so much sky

[Chorus]

 C     Am    Em
(Oh-ay-oh-ay-ooh) Where all the wild ones are born

 C     Am    Em (G)                G
(Oh-ay-oh-ay-ooh-ooh) And heaven stretches on and on

 C     Am    Em
(Oh-ay-oh-ay-ooh) We run free we run strong

 C     Am    Em (G)      G
(Oh-ay-oh-ay-ooh-ooh) So much sky

[Bridge]

C Dm C Dm Am Dm C Dm x 2 C

    1  o  2  o  3  o  4  o  5  o  6  o  7  o  8  o
e|---------------------------------------------------|  \
B|---------------------------------------------------|   |
G|--9-------(9)------(9)-------9--------10-------10--|   |
D|--10------(10)-----(10)------10-------10-------10--|   |
A|---------------------------------------------------|   |
E|---------------------------------------------------|   |
                                                         |
e|---------------------------------------------------|   |
B|---------------------------------------------------|   |
G|--9-------(9)------(9)-------9--------10-------10--|   |
D|--10------(10)-----(10)------10-------10-------10--|   |
A|---------------------------------------------------|   |
E|---------------------------------------------------|   |
                                                         | x 2
e|---------------------------------------------------|   |
B|---------------------------------------------------|   |
G|--11------(12)-----(12)------12-------10-------10--|   |
D|--10------(10)-----(10)------10-------10-------10--|   |
A|---------------------------------------------------|   |
E|---------------------------------------------------|   |
                                                         |
e|---------------------------------------------------|   |
B|---------------------------------------------------|   |
G|--9-------(9)------(9)-------9--------10-------10--|   |
D|--10------(10)-----(10)------10-------10-------10--|   |
A|---------------------------------------------------|   |
E|---------------------------------------------------|  /

(On and on)

e|---------------------------------------------|
B|---------------------------------------------|
G|--9-------(9)------(9)------(9)------(9)-----|
D|--10------(10)-----(10)-----(10)-----(10)----|
A|---------------------------------------------|
E|---------------------------------------------|

[Outro]

C  Am  Em
On and on
C  Am  Em    G
On and on it goes

C       Am           Em
Down below my people roam
C       Am             Em      G
Looking up the sky goes on and on
C       Am           Em
Down below my people roam
C       Am             Em      G      C
Looking up the sky goes on and on and on

(C)    Am    Em
(Oh-ay-oh-ay-ooh) On and on and on
 C     Am    Em          G
(Oh-ay-oh-ay-ooh) On and on and on
 C     Am    Em
(Oh-ay-oh-ay-ooh) On and on and on
 C     Am    Em      G
(Oh-ay-oh-ay-ooh) So much sky

            
            
Suggest correction
Creating personal tab
Creating personal tab
You can edit any tab online and save it as your Personal.

You can edit, replace or remove any tab part or add personal notes – all changes will be seen only by you.

Personal tabs can be accessed anytime from any device, even offline.
Learn more »
Give kudos to tab author, rate the tab!
1 2 3 4 5
comments
print report bad tab
guest
You may want to rate the tab now too:
select rating
Wanna post a correction for this tab? Suggest correction