Oops, an error
Loading. Please wait.

Soldier On Bass Tab

version 1
version 1

Whole song

Interactive

3,760 views 10 this week
no commentswrite comment
1 2 3 4 5
excellent!
x 3
add to favorites
launch autoscroll
font size
0
reset
guitar tuner
Tab Pro tools
  • play this tab
  • loop segment
  • change instrument
  • show fretboard
  • metronome
×
Best way to learn
"Soldier On"
Autoscroll
slow
fast
+/-
esc
set tempo
stop
Contributor
-------------------------------------------------------------------------------
		  Soldier On -  The Temper Trap
-------------------------------------------------------------------------------

 Tabbed by:dvanwyk
 Email:dustinvanwyk@yahoo.com

 Tuning:Standard

 Verse x2 (0.47)
G|-----9-7~---------11----------------------|
D|---------------------12~------------------|
A|------------5~----------------------------|
E|7~--------------------------2~----3~------|

G|--------------------------------|
D|--------------------------------|
A|--------------------------------|
E|7~---7-7~---7-7~---7-7~---------|

 Verse x4

 Chorus x3
G|--------------------------------|
D|--------9~----------11~---------|
A|9-8-7~------7-8-9~--------------|
E|--------------------------------|

G|--------------------|
D|--------------------|
A|--------------------|
E|3~----5~------------|

 Verse x4

 Chorus

 verse x4

G|------------------------------------|
D|------/555555---------/555555-------|
A|------------------------------------|
E|33333----------333333---------------|

 x5
G|-------------------9-7-----------------------------|
D|--------------7----------------4-----------5-------|
A|-----------55---55--------4------4----5------5-----|
E|77777777-9-------------22---22-----33---33---------|
comments
We did not receive enough feedback on this tab! Please rate:
print report bad tab
1 2 3 4 5
I want to post or [tab]
guest
You may want to rate the tab now too:
select rating
Please do not post tabs as comments. Select "correction" instead!